  0
SECTION
  2
HEADER
  9
$ACADVER
  1
AC1014
  9
$ACADMAINTVER
 70
     9
  9
$DWGCODEPAGE
  3
ANSI_1252
  9
$INSBASE
 10
0.0
 20
0.0
 30
0.0
  9
$EXTMIN
 10
12.665631
 20
-227.337075
 30
-0.001526
  9
$EXTMAX
 10
287.691819
 20
-4.433104
 30
0.0
  9
$LIMMIN
 10
12.589929
 20
-227.330138
  9
$LIMMAX
 10
288.209109
 20
0.0
  9
$ORTHOMODE
 70
     0
  9
$REGENMODE
 70
     1
  9
$FILLMODE
 70
     1
  9
$QTEXTMODE
 70
     0
  9
$MIRRTEXT
 70
     1
  9
$DRAGMODE
 70
     2
  9
$LTSCALE
 40
1.0
  9
$OSMODE
 70
     0
  9
$ATTMODE
 70
     1
  9
$TEXTSIZE
 40
0.2
  9
$TRACEWID
 40
0.05
  9
$TEXTSTYLE
  7
STANDARD
  9
$CLAYER
  8
0
  9
$CELTYPE
  6
CONTINUOUS
  9
$CECOLOR
 62
   256
  9
$CELTSCALE
 40
1.0
  9
$DELOBJ
 70
     1
  9
$DISPSILH
 70
     0
  9
$DIMSCALE
 40
1.0
  9
$DIMASZ
 40
0.18
  9
$DIMEXO
 40
0.0625
  9
$DIMDLI
 40
0.38
  9
$DIMRND
 40
0.0
  9
$DIMDLE
 40
0.0
  9
$DIMEXE
 40
0.18
  9
$DIMTP
 40
0.0
  9
$DIMTM
 40
0.0
  9
$DIMTXT
 40
0.18
  9
$DIMCEN
 40
0.09
  9
$DIMTSZ
 40
0.0
  9
$DIMTOL
 70
     0
  9
$DIMLIM
 70
     0
  9
$DIMTIH
 70
     1
  9
$DIMTOH
 70
     1
  9
$DIMSE1
 70
     0
  9
$DIMSE2
 70
     0
  9
$DIMTAD
 70
     0
  9
$DIMZIN
 70
     0
  9
$DIMBLK
  1

  9
$DIMASO
 70
     1
  9
$DIMSHO
 70
     1
  9
$DIMPOST
  1

  9
$DIMAPOST
  1

  9
$DIMALT
 70
     0
  9
$DIMALTD
 70
     2
  9
$DIMALTF
 40
25.4
  9
$DIMLFAC
 40
1.0
  9
$DIMTOFL
 70
     0
  9
$DIMTVP
 40
0.0
  9
$DIMTIX
 70
     0
  9
$DIMSOXD
 70
     0
  9
$DIMSAH
 70
     0
  9
$DIMBLK1
  1

  9
$DIMBLK2
  1

  9
$DIMSTYLE
  2
STANDARD
  9
$DIMCLRD
 70
     0
  9
$DIMCLRE
 70
     0
  9
$DIMCLRT
 70
     0
  9
$DIMTFAC
 40
1.0
  9
$DIMGAP
 40
0.09
  9
$DIMJUST
 70
     0
  9
$DIMSD1
 70
     0
  9
$DIMSD2
 70
     0
  9
$DIMTOLJ
 70
     1
  9
$DIMTZIN
 70
     0
  9
$DIMALTZ
 70
     0
  9
$DIMALTTZ
 70
     0
  9
$DIMFIT
 70
     3
  9
$DIMUPT
 70
     0
  9
$DIMUNIT
 70
     2
  9
$DIMDEC
 70
     4
  9
$DIMTDEC
 70
     4
  9
$DIMALTU
 70
     2
  9
$DIMALTTD
 70
     2
  9
$DIMTXSTY
  7
STANDARD
  9
$DIMAUNIT
 70
     0
  9
$LUNITS
 70
     2
  9
$LUPREC
 70
     4
  9
$SKETCHINC
 40
0.1
  9
$FILLETRAD
 40
0.0
  9
$AUNITS
 70
     0
  9
$AUPREC
 70
     0
  9
$MENU
  1
acad
  9
$ELEVATION
 40
0.0
  9
$PELEVATION
 40
0.0
  9
$THICKNESS
 40
0.0
  9
$LIMCHECK
 70
     0
  9
$BLIPMODE
 70
     1
  9
$CHAMFERA
 40
0.0
  9
$CHAMFERB
 40
0.0
  9
$CHAMFERC
 40
0.0
  9
$CHAMFERD
 40
0.0
  9
$SKPOLY
 70
     0
  9
$TDCREATE
 40
2451970.398872222
  9
$TDUPDATE
 40
2451970.398872222
  9
$TDINDWG
 40
0.0000000000
  9
$TDUSRTIMER
 40
0.0000000000
  9
$USRTIMER
 70
     1
  9
$ANGBASE
 50
0.0
  9
$ANGDIR
 70
     0
  9
$PDMODE
 70
     0
  9
$PDSIZE
 40
0.0
  9
$PLINEWID
 40
0.0
  9
$COORDS
 70
     0
  9
$SPLFRAME
 70
     0
  9
$SPLINETYPE
 70
     6
  9
$SPLINESEGS
 70
     8
  9
$ATTDIA
 70
     0
  9
$ATTREQ
 70
     1
  9
$HANDLING
 70
     1
  9
$HANDSEED
  5
4B0
  9
$SURFTAB1
 70
     6
  9
$SURFTAB2
 70
     6
  9
$SURFTYPE
 70
     6
  9
$SURFU
 70
     6
  9
$SURFV
 70
     6
  9
$UCSNAME
  2

  9
$UCSORG
 10
0.0
 20
0.0
 30
0.0
  9
$UCSXDIR
 10
1.0
 20
0.0
 30
0.0
  9
$UCSYDIR
 10
0.0
 20
1.0
 30
0.0
  9
$PUCSNAME
  2

  9
$PUCSORG
 10
0.0
 20
0.0
 30
0.0
  9
$PUCSXDIR
 10
1.0
 20
0.0
 30
0.0
  9
$PUCSYDIR
 10
0.0
 20
1.0
 30
0.0
  9
$USERI1
 70
     0
  9
$USERI2
 70
     0
  9
$USERI3
 70
     0
  9
$USERI4
 70
     0
  9
$USERI5
 70
     0
  9
$USERR1
 40
0.0
  9
$USERR2
 40
0.0
  9
$USERR3
 40
0.0
  9
$USERR4
 40
0.0
  9
$USERR5
 40
0.0
  9
$WORLDVIEW
 70
     1
  9
$SHADEDGE
 70
     3
  9
$SHADEDIF
 70
    70
  9
$TILEMODE
 70
     1
  9
$MAXACTVP
 70
    16
  9
$PINSBASE
 10
0.0
 20
0.0
 30
0.0
  9
$PLIMCHECK
 70
     0
  9
$PEXTMIN
 10
1.000000E+20
 20
1.000000E+20
 30
1.000000E+20
  9
$PEXTMAX
 10
-1.000000E+20
 20
-1.000000E+20
 30
-1.000000E+20
  9
$PLIMMIN
 10
0.0
 20
0.0
  9
$PLIMMAX
 10
12.0
 20
9.0
  9
$UNITMODE
 70
     0
  9
$VISRETAIN
 70
     0
  9
$PLINEGEN
 70
     1
  9
$PSLTSCALE
 70
     0
  9
$TREEDEPTH
 70
  3020
  9
$PICKSTYLE
 70
     1
  9
$CMLSTYLE
  2
STANDARD
  9
$CMLJUST
 70
     0
  9
$CMLSCALE
 40
1.0
  9
$PROXYGRAPHICS
 70
     0
  9
$MEASUREMENT
 70
     0
  0
ENDSEC
  0
SECTION
  2
CLASSES
  0
CLASS
  1
LWPOLYLINE
  2
AcDbPolyline
  3
"AutoCAD"
 90
        0
280
     0
281
     1
  0
CLASS
  1
IMAGE
  2
AcDbRasterImage
  3
ISM
 90
      127
280
     0
281
     1
  0
CLASS
  1
OLE2FRAME
  2
AcDbOle2Frame
  3
""
 90
        0
280
     0
281
     1
  0
CLASS
  1
HATCH
  2
AcDbHatch
  3
"ACAD_SEDONA"
 90
        0
280
     0
281
     1
  0
CLASS
  1
DICTIONARYVAR
  2
AcDbDictionaryVar
  3
"AutoCAD"
 90
        0
280
     0
281
     0
  0
CLASS
  1
RASTERVARIABLES
  2
AcDbRasterVariables
  3
ISM
 90
        0
280
     0
281
     0
  0
CLASS
  1
IMAGEDEF
  2
AcDbRasterImageDef
  3
ISM
 90
        0
280
     0
281
     0
  0
CLASS
  1
IMAGEDEF_REACTOR
  2
AcDbRasterImageDefReactor
  3
ISM
 90
        1
280
     0
281
     0
  0
CLASS
  1
IDBUFFER
  2
AcDbIdBuffer
  3
"Acad"
 90
        0
280
     0
281
     0
  0
CLASS
  1
SPATIAL_FILTER
  2
AcDbSpatialFilter
  3
"Acad"
 90
        0
280
     0
281
     0
  0
CLASS
  1
XRECORD
  2
AcDbXrecord
  3
"<Built In>"
 90
        0
280
     0
281
     0
  0
CLASS
  1
SORTENTSTABLE
  2
AcDbSortentsTable
  3
"AutoCAD"
 90
        0
280
     0
281
     0
  0
CLASS
  1
LAYER_INDEX
  2
AcDbLayerIndex
  3
"Acad"
 90
        0
280
     0
281
     0
  0
CLASS
  1
SPATIAL_INDEX
  2
AcDbSpatialIndex
  3
"Acad"
 90
        0
280
     0
281
     0
  0
CLASS
  1
OBJECT_PTR
  2
CAseDLPNTableRecord
  3
ASE-LPNTableRecord
 90
        1
280
     0
281
     0
  0
CLASS
  1
LAYOUT
  2
AcDbLayout
  3
"AutoCAD 2000"
 90
        1
280
     0
281
     0
  0
CLASS
  1
PLOTSETTINGS
  2
AcDbPlotSettings
  3
"AutoCAD 2000"
 90
        1
280
     0
281
     0
  0
CLASS
  1
ACDBDICTIONARYWDFLT
  2
AcDbDictionaryWithDefault
  3
"AutoCAD 2000"
 90
        1
280
     0
281
     0
  0
CLASS
  1
ACDBPLACEHOLDER
  2
AcDbPlaceHolder
  3
"AutoCAD 2000"
 90
        1
280
     0
281
     0
  0
CLASS
  1
VBA_PROJECT
  2
AcDbVbaProject
  3
"acadvba"
 90
        1
280
     0
281
     0
  0
CLASS
  1
WIPEOUT
  2
AcDbWipeout
  3
WipeOut|AutoCAD Express Tool|expresstools@autodesk.com
 90
      127
280
     0
281
     1
  0
CLASS
  1
WIPEOUTVARIABLES
  2
AcDbWipeoutVariables
  3
WipeOut|AutoCAD Express Tool|expresstools@autodesk.com
 90
        0
280
     0
281
     0
  0
CLASS
  1
RTEXT
  2
RText
  3
RText|AutoCAD Express Tool|expresstools@autodesk.com
 90
        0
280
     0
281
     1
  0
CLASS
  1
ARCALIGNEDTEXT
  2
AcDbArcAlignedText
  3
ATEXT|AutoCAD Express Tool|expresstools@autodesk.com
 90
        0
280
     0
281
     1
  0
ENDSEC
  0
SECTION
  2
TABLES
  0
TABLE
  2
VPORT
  5
7
100
AcDbSymbolTable
 70
     2
  0
VPORT
  5
4AF
100
AcDbSymbolTableRecord
100
AcDbViewportTableRecord
  2
*ACTIVE
 70
     0
 10
0.0
 20
0.0
 11
1.0
 21
1.0
 12
150.399519
 22
-113.668537
 13
0.0
 23
0.0
 14
1.0
 24
1.0
 15
0.0
 25
0.0
 16
0.0
 26
0.0
 36
1.0
 17
0.0
 27
0.0
 37
0.0
 40
285.96234
 41
1.529968
 42
50.0
 43
0.0
 44
0.0
 50
0.0
 51
0.0
 71
     0
 72
   100
 73
     1
 74
     1
 75
     0
 76
     0
 77
     0
 78
     0
  0
ENDTAB
  0
TABLE
  2
LTYPE
  5
4
100
AcDbSymbolTable
 70
     4
  0
LTYPE
  5
11
100
AcDbSymbolTableRecord
100
AcDbLinetypeTableRecord
  2
BYBLOCK
 70
     0
  3

 72
    65
 73
     0
 40
0.0
  0
LTYPE
  5
12
100
AcDbSymbolTableRecord
100
AcDbLinetypeTableRecord
  2
BYLAYER
 70
     0
  3

 72
    65
 73
     0
 40
0.0
  0
LTYPE
  5
13
100
AcDbSymbolTableRecord
100
AcDbLinetypeTableRecord
  2
CONTINUOUS
 70
     0
  3
Solid line
 72
    65
 73
     0
 40
0.0
  0
LTYPE
  5
10B
100
AcDbSymbolTableRecord
100
AcDbLinetypeTableRecord
  2
AI9-LTYPE1
 70
     0
  3
Illustrator Dash Style No.1
 72
    65
 73
     4
 40
3.880556
 49
1.763889
 74
     0
 49
-0.705556
 74
     0
 49
0.705556
 74
     0
 49
-0.705556
 74
     0
  0
LTYPE
  5
1EF
100
AcDbSymbolTableRecord
100
AcDbLinetypeTableRecord
  2
AI9-LTYPE2
 70
     0
  3
Illustrator Dash Style No.2
 72
    65
 73
     3
 40
3.175
 49
1.763889
 74
     0
 49
-0.705556
 74
     0
 49
0.705556
 74
     0
  0
LTYPE
  5
1FB
100
AcDbSymbolTableRecord
100
AcDbLinetypeTableRecord
  2
AI9-LTYPE3
 70
     0
  3
Illustrator Dash Style No.3
 72
    65
 73
     2
 40
1.411111
 49
0.705556
 74
     0
 49
-0.705556
 74
     0
  0
ENDTAB
  0
TABLE
  2
LAYER
  5
2
100
AcDbSymbolTable
 70
     2
  0
LAYER
  5
14
100
AcDbSymbolTableRecord
100
AcDbLayerTableRecord
  2
0
 70
     0
 62
     7
  6
CONTINUOUS
  0
LAYER
  5
21
100
AcDbSymbolTableRecord
100
AcDbLayerTableRecord
  2
PEGA_345
 70
     0
 62
     5
  6
CONTINUOUS
  0
ENDTAB
  0
TABLE
  2
STYLE
  5
3
100
AcDbSymbolTable
 70
     5
  0
STYLE
  5
17
100
AcDbSymbolTableRecord
100
AcDbTextStyleTableRecord
  2
STANDARD
 70
     0
 40
0.0
 41
1.0
 50
0.0
 71
     0
 42
0.0
  3
txt
  4

  0
STYLE
  5
1D
100
AcDbSymbolTableRecord
100
AcDbTextStyleTableRecord
  2
STD
 70
     0
 40
0.0
 41
1.0
 50
0.0
 71
     0
 42
0.0
  3
txt
  4

  0
STYLE
  5
1E
100
AcDbSymbolTableRecord
100
AcDbTextStyleTableRecord
  2
TATESTD
 70
     4
 40
0.0
 41
1.0
 50
0.0
 71
     0
 42
0.0
  3
txt
  4

  0
STYLE
  5
1F
100
AcDbSymbolTableRecord
100
AcDbTextStyleTableRecord
  2
KANJISTD
 70
     0
 40
0.0
 41
1.0
 50
0.0
 71
     0
 42
0.0
  3
txt
  4
extfont
  0
STYLE
  5
20
100
AcDbSymbolTableRecord
100
AcDbTextStyleTableRecord
  2
KANJITATE
 70
     4
 40
0.0
 41
1.0
 50
0.0
 71
     0
 42
0.0
  3
txt
  4
extfont
  0
ENDTAB
  0
TABLE
  2
VIEW
  5
5
100
AcDbSymbolTable
 70
     0
  0
ENDTAB
  0
TABLE
  2
UCS
  5
6
100
AcDbSymbolTable
 70
     0
  0
ENDTAB
  0
TABLE
  2
APPID
  5
8
100
AcDbSymbolTable
 70
     1
  0
APPID
  5
16
100
AcDbSymbolTableRecord
100
AcDbRegAppTableRecord
  2
ACAD
 70
     0
  0
ENDTAB
  0
TABLE
  2
DIMSTYLE
  5
9
100
AcDbSymbolTable
 70
     1
  0
DIMSTYLE
105
18
100
AcDbSymbolTableRecord
100
AcDbDimStyleTableRecord
  2
STANDARD
 70
     0
  3

  4

  5

  6

  7

 40
1.0
 41
0.18
 42
0.0625
 43
0.38
 44
0.18
 45
0.0
 46
0.0
 47
0.0
 48
0.0
140
0.18
141
0.09
142
0.0
143
25.4
144
1.0
145
0.0
146
1.0
147
0.09
 71
     0
 72
     0
 73
     1
 74
     1
 75
     0
 76
     0
 77
     0
 78
     0
170
     0
171
     2
172
     0
173
     0
174
     0
175
     0
176
     0
177
     0
178
     0
270
     2
271
     4
272
     4
273
     2
274
     2
340
17
275
     0
280
     0
281
     0
282
     0
283
     1
284
     0
285
     0
286
     0
287
     0
288
     0
  0
ENDTAB
  0
TABLE
  2
BLOCK_RECORD
  5
1
100
AcDbSymbolTable
 70
    50
  0
BLOCK_RECORD
  5
A
100
AcDbSymbolTableRecord
100
AcDbBlockTableRecord
  2
*MODEL_SPACE
  0
BLOCK_RECORD
  5
B
100
AcDbSymbolTableRecord
100
AcDbBlockTableRecord
  2
*PAPER_SPACE
  0
BLOCK_RECORD
  5
23
100
AcDbSymbolTableRecord
100
AcDbBlockTableRecord
  2
AI9-BLK1
  0
BLOCK_RECORD
  5
27
100
AcDbSymbolTableRecord
100
AcDbBlockTableRecord
  2
AI9-BLK2
  0
BLOCK_RECORD
  5
2D
100
AcDbSymbolTableRecord
100
AcDbBlockTableRecord
  2
AI9-BLK3
  0
BLOCK_RECORD
  5
37
100
AcDbSymbolTableRecord
100
AcDbBlockTableRecord
  2
AI9-BLK4
  0
BLOCK_RECORD
  5
41
100
AcDbSymbolTableRecord
100
AcDbBlockTableRecord
  2
AI9-BLK5
  0
BLOCK_RECORD
  5
4B
100
AcDbSymbolTableRecord
100
AcDbBlockTableRecord
  2
AI9-BLK6
  0
BLOCK_RECORD
  5
5E
100
AcDbSymbolTableRecord
100
AcDbBlockTableRecord
  2
AI9-BLK7
  0
BLOCK_RECORD
  5
CF
100
AcDbSymbolTableRecord
100
AcDbBlockTableRecord
  2
AI9-BLK8
  0
BLOCK_RECORD
  5
DE
100
AcDbSymbolTableRecord
100
AcDbBlockTableRecord
  2
AI9-BLK9
  0
BLOCK_RECORD
  5
10E
100
AcDbSymbolTableRecord
100
AcDbBlockTableRecord
  2
AI9-BLK10
  0
BLOCK_RECORD
  5
122
100
AcDbSymbolTableRecord
100
AcDbBlockTableRecord
  2
AI9-BLK11
  0
BLOCK_RECORD
  5
12F
100
AcDbSymbolTableRecord
100
AcDbBlockTableRecord
  2
AI9-BLK12
  0
BLOCK_RECORD
  5
13C
100
AcDbSymbolTableRecord
100
AcDbBlockTableRecord
  2
AI9-BLK13
  0
BLOCK_RECORD
  5
150
100
AcDbSymbolTableRecord
100
AcDbBlockTableRecord
  2
AI9-BLK14
  0
BLOCK_RECORD
  5
163
100
AcDbSymbolTableRecord
100
AcDbBlockTableRecord
  2
AI9-BLK15
  0
BLOCK_RECORD
  5
176
100
AcDbSymbolTableRecord
100
AcDbBlockTableRecord
  2
AI9-BLK16
  0
BLOCK_RECORD
  5
18A
100
AcDbSymbolTableRecord
100
AcDbBlockTableRecord
  2
AI9-BLK17
  0
BLOCK_RECORD
  5
19F
100
AcDbSymbolTableRecord
100
AcDbBlockTableRecord
  2
AI9-BLK18
  0
BLOCK_RECORD
  5
1B2
100
AcDbSymbolTableRecord
100
AcDbBlockTableRecord
  2
AI9-BLK19
  0
BLOCK_RECORD
  5
1C7
100
AcDbSymbolTableRecord
100
AcDbBlockTableRecord
  2
AI9-BLK20
  0
BLOCK_RECORD
  5
1DA
100
AcDbSymbolTableRecord
100
AcDbBlockTableRecord
  2
AI9-BLK21
  0
BLOCK_RECORD
  5
1F1
100
AcDbSymbolTableRecord
100
AcDbBlockTableRecord
  2
AI9-BLK22
  0
BLOCK_RECORD
  5
1F5
100
AcDbSymbolTableRecord
100
AcDbBlockTableRecord
  2
AI9-BLK23
  0
BLOCK_RECORD
  5
1F8
100
AcDbSymbolTableRecord
100
AcDbBlockTableRecord
  2
AI9-BLK24
  0
BLOCK_RECORD
  5
1FE
100
AcDbSymbolTableRecord
100
AcDbBlockTableRecord
  2
AI9-BLK25
  0
BLOCK_RECORD
  5
203
100
AcDbSymbolTableRecord
100
AcDbBlockTableRecord
  2
AI9-BLK26
  0
BLOCK_RECORD
  5
208
100
AcDbSymbolTableRecord
100
AcDbBlockTableRecord
  2
AI9-BLK27
  0
BLOCK_RECORD
  5
20D
100
AcDbSymbolTableRecord
100
AcDbBlockTableRecord
  2
AI9-BLK28
  0
BLOCK_RECORD
  5
212
100
AcDbSymbolTableRecord
100
AcDbBlockTableRecord
  2
AI9-BLK29
  0
BLOCK_RECORD
  5
21D
100
AcDbSymbolTableRecord
100
AcDbBlockTableRecord
  2
AI9-BLK30
  0
BLOCK_RECORD
  5
229
100
AcDbSymbolTableRecord
100
AcDbBlockTableRecord
  2
AI9-BLK31
  0
BLOCK_RECORD
  5
286
100
AcDbSymbolTableRecord
100
AcDbBlockTableRecord
  2
AI9-BLK32
  0
BLOCK_RECORD
  5
2E3
100
AcDbSymbolTableRecord
100
AcDbBlockTableRecord
  2
AI9-BLK33
  0
BLOCK_RECORD
  5
340
100
AcDbSymbolTableRecord
100
AcDbBlockTableRecord
  2
AI9-BLK34
  0
BLOCK_RECORD
  5
351
100
AcDbSymbolTableRecord
100
AcDbBlockTableRecord
  2
AI9-BLK35
  0
BLOCK_RECORD
  5
354
100
AcDbSymbolTableRecord
100
AcDbBlockTableRecord
  2
AI9-BLK36
  0
BLOCK_RECORD
  5
35E
100
AcDbSymbolTableRecord
100
AcDbBlockTableRecord
  2
AI9-BLK37
  0
BLOCK_RECORD
  5
369
100
AcDbSymbolTableRecord
100
AcDbBlockTableRecord
  2
AI9-BLK38
  0
BLOCK_RECORD
  5
36C
100
AcDbSymbolTableRecord
100
AcDbBlockTableRecord
  2
AI9-BLK39
  0
BLOCK_RECORD
  5
376
100
AcDbSymbolTableRecord
100
AcDbBlockTableRecord
  2
AI9-BLK40
  0
BLOCK_RECORD
  5
38F
100
AcDbSymbolTableRecord
100
AcDbBlockTableRecord
  2
AI9-BLK41
  0
BLOCK_RECORD
  5
394
100
AcDbSymbolTableRecord
100
AcDbBlockTableRecord
  2
AI9-BLK42
  0
BLOCK_RECORD
  5
3A0
100
AcDbSymbolTableRecord
100
AcDbBlockTableRecord
  2
AI9-BLK43
  0
BLOCK_RECORD
  5
423
100
AcDbSymbolTableRecord
100
AcDbBlockTableRecord
  2
AI9-BLK44
  0
BLOCK_RECORD
  5
437
100
AcDbSymbolTableRecord
100
AcDbBlockTableRecord
  2
AI9-BLK45
  0
BLOCK_RECORD
  5
44C
100
AcDbSymbolTableRecord
100
AcDbBlockTableRecord
  2
AI9-BLK46
  0
BLOCK_RECORD
  5
460
100
AcDbSymbolTableRecord
100
AcDbBlockTableRecord
  2
AI9-BLK47
  0
BLOCK_RECORD
  5
474
100
AcDbSymbolTableRecord
100
AcDbBlockTableRecord
  2
AI9-BLK48
  0
BLOCK_RECORD
  5
488
100
AcDbSymbolTableRecord
100
AcDbBlockTableRecord
  2
AI9-BLK49
  0
BLOCK_RECORD
  5
496
100
AcDbSymbolTableRecord
100
AcDbBlockTableRecord
  2
AI9-BLK50
  0
ENDTAB
  0
ENDSEC
  0
SECTION
  2
BLOCKS
  0
BLOCK
  5
D
100
AcDbEntity
  8
0
100
AcDbBlockBegin
  2
*MODEL_SPACE
 70
     0
 10
0.0
 20
0.0
 30
0.0
  3
*MODEL_SPACE
  1

  0
ENDBLK
  5
E
100
AcDbEntity
  8
0
100
AcDbBlockEnd
  0
BLOCK
  5
F
100
AcDbEntity
 67
     1
  8
0
100
AcDbBlockBegin
  2
*PAPER_SPACE
 70
     0
 10
0.0
 20
0.0
 30
0.0
  3
*PAPER_SPACE
  1

  0
ENDBLK
  5
10
100
AcDbEntity
 67
     1
  8
0
100
AcDbBlockEnd
  0
BLOCK
  5
25
100
AcDbEntity
  8
PEGA_345
 62
     7
100
AcDbBlockBegin
  2
AI9-BLK1
 70
     0
 10
0.0
 20
0.0
 30
0.0
  3
AI9-BLK1
  1

  0
INSERT
  5
28
100
AcDbEntity
  8
PEGA_345
 62
     7
100
AcDbBlockReference
  2
AI9-BLK2
 10
0.0
 20
0.0
 30
0.0
  0
MTEXT
  5
26
100
AcDbEntity
  8
PEGA_345
 62
     7
100
AcDbMText
 10
5.108129
 20
3.010169
 30
0.0
 40
2.624835
 41
0.0
 71
     1
 72
     2
  1
\fArial|b0|i0;12"
  7
STD
 11
1.000001
 21
0.0
 31
0.0
  0
ENDBLK
  5
56
100
AcDbEntity
  8
PEGA_345
100
AcDbBlockEnd
  0
BLOCK
  5
29
100
AcDbEntity
  8
PEGA_345
 62
     7
100
AcDbBlockBegin
  2
AI9-BLK2
 70
     0
 10
0.0
 20
0.0
 30
0.0
  3
AI9-BLK2
  1

  0
INSERT
  5
4C
100
AcDbEntity
  8
PEGA_345
 62
     7
100
AcDbBlockReference
  2
AI9-BLK6
 10
-7.620034
 20
1.580093
 30
0.0
  0
INSERT
  5
42
100
AcDbEntity
  8
PEGA_345
 62
     7
100
AcDbBlockReference
  2
AI9-BLK5
 10
0.0
 20
1.580093
 30
0.0
  0
INSERT
  5
38
100
AcDbEntity
  8
PEGA_345
 62
     7
100
AcDbBlockReference
  2
AI9-BLK4
 10
7.620034
 20
1.580093
 30
0.0
  0
INSERT
  5
2E
100
AcDbEntity
  8
PEGA_345
 62
     7
100
AcDbBlockReference
  2
AI9-BLK3
 10
-0.000086
 20
-3.711574
 30
0.0
  0
MTEXT
  5
2C
100
AcDbEntity
  8
PEGA_345
 62
     7
100
AcDbMText
 10
-4.647003
 20
-2.110966
 30
0.0
 40
2.624835
 41
0.0
 71
     1
 72
     2
  1
\fArial|b0|i0;Scale
  7
STD
 11
1.000001
 21
0.0
 31
0.0
  0
MTEXT
  5
2B
100
AcDbEntity
  8
PEGA_345
 62
     7
100
AcDbMText
 10
-9.90353
 20
3.050476
 30
0.0
 40
2.624835
 41
0.0
 71
     1
 72
     2
  1
\fArial|b0|i0;12"
  7
STD
 11
1.000001
 21
0.0
 31
0.0
  0
MTEXT
  5
2A
100
AcDbEntity
  8
PEGA_345
 62
     7
100
AcDbMText
 10
-2.34723
 20
3.050476
 30
0.0
 40
2.624835
 41
0.0
 71
     1
 72
     2
  1
\fArial|b0|i0;12"
  7
STD
 11
1.000001
 21
0.0
 31
0.0
  0
ENDBLK
  5
55
100
AcDbEntity
  8
PEGA_345
100
AcDbBlockEnd
  0
BLOCK
  5
2F
100
AcDbEntity
  8
PEGA_345
 62
     7
100
AcDbBlockBegin
  2
AI9-BLK3
 70
     0
 10
0.0
 20
0.0
 30
0.0
  3
AI9-BLK3
  1

  0
POLYLINE
  5
30
100
AcDbEntity
  8
PEGA_345
 62
     7
100
AcDb2dPolyline
 66
     1
 10
0.0
 20
0.0
 30
0.0
 70
     1
  0
VERTEX
  5
31
100
AcDbEntity
  8
PEGA_345
 62
     7
100
AcDbVertex
100
AcDb2dVertex
 10
-11.429966
 20
1.481736
 30
0.0
  0
VERTEX
  5
32
100
AcDbEntity
  8
PEGA_345
 62
     7
100
AcDbVertex
100
AcDb2dVertex
 10
11.429966
 20
1.481736
 30
0.0
  0
VERTEX
  5
33
100
AcDbEntity
  8
PEGA_345
 62
     7
100
AcDbVertex
100
AcDb2dVertex
 10
11.429966
 20
-1.481736
 30
0.0
  0
VERTEX
  5
34
100
AcDbEntity
  8
PEGA_345
 62
     7
100
AcDbVertex
100
AcDb2dVertex
 10
-11.429966
 20
-1.481736
 30
0.0
  0
SEQEND
  5
35
100
AcDbEntity
  8
PEGA_345
 62
     7
  0
ENDBLK
  5
36
100
AcDbEntity
  8
PEGA_345
100
AcDbBlockEnd
  0
BLOCK
  5
39
100
AcDbEntity
  8
PEGA_345
 62
     7
100
AcDbBlockBegin
  2
AI9-BLK4
 70
     0
 10
0.0
 20
0.0
 30
0.0
  3
AI9-BLK4
  1

  0
POLYLINE
  5
3A
100
AcDbEntity
  8
PEGA_345
 62
     7
100
AcDb2dPolyline
 66
     1
 10
0.0
 20
0.0
 30
0.0
 70
     1
  0
VERTEX
  5
3B
100
AcDbEntity
  8
PEGA_345
 62
     7
100
AcDbVertex
100
AcDb2dVertex
 10
-3.810017
 20
3.809931
 30
0.0
  0
VERTEX
  5
3C
100
AcDbEntity
  8
PEGA_345
 62
     7
100
AcDbVertex
100
AcDb2dVertex
 10
3.810017
 20
3.809931
 30
0.0
  0
VERTEX
  5
3D
100
AcDbEntity
  8
PEGA_345
 62
     7
100
AcDbVertex
100
AcDb2dVertex
 10
3.810017
 20
-3.809931
 30
0.0
  0
VERTEX
  5
3E
100
AcDbEntity
  8
PEGA_345
 62
     7
100
AcDbVertex
100
AcDb2dVertex
 10
-3.810017
 20
-3.809931
 30
0.0
  0
SEQEND
  5
3F
100
AcDbEntity
  8
PEGA_345
 62
     7
  0
ENDBLK
  5
40
100
AcDbEntity
  8
PEGA_345
100
AcDbBlockEnd
  0
BLOCK
  5
43
100
AcDbEntity
  8
PEGA_345
 62
     7
100
AcDbBlockBegin
  2
AI9-BLK5
 70
     0
 10
0.0
 20
0.0
 30
0.0
  3
AI9-BLK5
  1

  0
POLYLINE
  5
44
100
AcDbEntity
  8
PEGA_345
 62
     7
100
AcDb2dPolyline
 66
     1
 10
0.0
 20
0.0
 30
0.0
 70
     1
  0
VERTEX
  5
45
100
AcDbEntity
  8
PEGA_345
 62
     7
100
AcDbVertex
100
AcDb2dVertex
 10
-3.810017
 20
3.809931
 30
0.0
  0
VERTEX
  5
46
100
AcDbEntity
  8
PEGA_345
 62
     7
100
AcDbVertex
100
AcDb2dVertex
 10
3.810017
 20
3.809931
 30
0.0
  0
VERTEX
  5
47
100
AcDbEntity
  8
PEGA_345
 62
     7
100
AcDbVertex
100
AcDb2dVertex
 10
3.810017
 20
-3.809931
 30
0.0
  0
VERTEX
  5
48
100
AcDbEntity
  8
PEGA_345
 62
     7
100
AcDbVertex
100
AcDb2dVertex
 10
-3.810017
 20
-3.809931
 30
0.0
  0
SEQEND
  5
49
100
AcDbEntity
  8
PEGA_345
 62
     7
  0
ENDBLK
  5
4A
100
AcDbEntity
  8
PEGA_345
100
AcDbBlockEnd
  0
BLOCK
  5
4D
100
AcDbEntity
  8
PEGA_345
 62
     7
100
AcDbBlockBegin
  2
AI9-BLK6
 70
     0
 10
0.0
 20
0.0
 30
0.0
  3
AI9-BLK6
  1

  0
POLYLINE
  5
4E
100
AcDbEntity
  8
PEGA_345
 62
     7
100
AcDb2dPolyline
 66
     1
 10
0.0
 20
0.0
 30
0.0
 70
     1
  0
VERTEX
  5
4F
100
AcDbEntity
  8
PEGA_345
 62
     7
100
AcDbVertex
100
AcDb2dVertex
 10
-3.810017
 20
3.809931
 30
0.0
  0
VERTEX
  5
50
100
AcDbEntity
  8
PEGA_345
 62
     7
100
AcDbVertex
100
AcDb2dVertex
 10
3.810017
 20
3.809931
 30
0.0
  0
VERTEX
  5
51
100
AcDbEntity
  8
PEGA_345
 62
     7
100
AcDbVertex
100
AcDb2dVertex
 10
3.810017
 20
-3.809931
 30
0.0
  0
VERTEX
  5
52
100
AcDbEntity
  8
PEGA_345
 62
     7
100
AcDbVertex
100
AcDb2dVertex
 10
-3.810017
 20
-3.809931
 30
0.0
  0
SEQEND
  5
53
100
AcDbEntity
  8
PEGA_345
 62
     7
  0
ENDBLK
  5
54
100
AcDbEntity
  8
PEGA_345
100
AcDbBlockEnd
  0
BLOCK
  5
60
100
AcDbEntity
  8
PEGA_345
 62
     7
100
AcDbBlockBegin
  2
AI9-BLK7
 70
     0
 10
0.0
 20
0.0
 30
0.0
  3
AI9-BLK7
  1

  0
SPLINE
  5
B9
100
AcDbEntity
  8
PEGA_345
 62
     7
100
AcDbSpline
210
0.0
220
0.0
230
-1.0
 70
     8
 71
     3
 72
     8
 73
     4
 74
     0
 42
0.0000001
 43
0.0000001
 40
0.0
 40
0.0
 40
0.0
 40
0.0
 40
1.0
 40
1.0
 40
1.0
 40
1.0
 10
-10.17362535264757
 20
1.873873562282985
 30
0.0
 10
-10.45819023980034
 20
0.8300096299913192
 30
0.0
 10
-10.67109714084201
 20
-0.2324578179253472
 30
0.0
 10
-10.8102789984809
 20
-1.305949571397569
 30
0.0
  0
SPLINE
  5
B8
100
AcDbEntity
  8
PEGA_345
 62
     7
100
AcDbSpline
210
0.0
220
0.0
230
1.0
 70
     8
 71
     3
 72
    11
 73
     7
 74
     0
 42
0.0000001
 43
0.0000001
 40
0.0
 40
0.0
 40
0.0
 40
0.0
 40
1.0
 40
1.0
 40
1.0
 40
2.0
 40
2.0
 40
2.0
 40
2.0
 10
-10.8102789984809
 20
-1.305949571397569
 30
0.0
 10
-11.04316745334201
 20
-1.992901611328124
 30
0.0
 10
-10.67454223632812
 20
-2.739109293619791
 30
0.0
 10
-9.986901177300346
 20
-2.972686767578124
 30
0.0
 10
-9.488051350911456
 20
-3.141496446397569
 30
0.0
 10
-8.936147054036457
 20
-2.99611341688368
 30
0.0
 10
-8.584747314453125
 20
-2.603372531467013
 30
0.0
  0
SPLINE
  5
B7
100
AcDbEntity
  8
PEGA_345
 62
     7
100
AcDbSpline
210
0.0
220
0.0
230
1.0
 70
     8
 71
     3
 72
     8
 73
     4
 74
     0
 42
0.0000001
 43
0.0000001
 40
0.0
 40
0.0
 40
0.0
 40
0.0
 40
1.0
 40
1.0
 40
1.0
 40
1.0
 10
4.061853705512151
 20
-4.030331081814235
 30
0.0
 10
4.989962429470486
 20
-3.707870144314235
 30
0.0
 10
5.673124864366318
 20
-2.912053087022569
 30
0.0
 10
5.852958848741319
 20
-1.946737331814236
 30
0.0
  0
SPLINE
  5
B6
100
AcDbEntity
  8
PEGA_345
 62
     7
100
AcDbSpline
210
0.0
220
0.0
230
1.0
 70
     8
 71
     3
 72
     8
 73
     4
 74
     0
 42
0.0000001
 43
0.0000001
 40
0.0
 40
0.0
 40
0.0
 40
0.0
 40
1.0
 40
1.0
 40
1.0
 40
1.0
 10
-8.500686984592013
 20
-2.624732123480902
 30
0.0
 10
-6.251728651258679
 20
-4.669740804036457
 30
0.0
 10
-3.285156928168402
 20
-5.744610595703124
 30
0.0
 10
-0.2479607476128472
 20
-5.613696967230902
 30
0.0
  0
SPLINE
  5
B5
100
AcDbEntity
  8
PEGA_345
 62
     7
100
AcDbSpline
210
0.0
220
0.0
230
1.0
 70
     8
 71
     3
 72
    14
 73
    10
 74
     0
 42
0.0000001
 43
0.0000001
 40
0.0
 40
0.0
 40
0.0
 40
0.0
 40
1.0
 40
1.0
 40
1.0
 40
2.0
 40
2.0
 40
2.0
 40
3.0
 40
3.0
 40
3.0
 40
3.0
 10
-4.626332600911458
 20
-1.161944580078124
 30
0.0
 10
-5.359448920355902
 20
-2.015639241536458
 30
0.0
 10
-5.261608208550346
 20
-3.301348876953124
 30
0.0
 10
-4.407913547092013
 20
-4.034465196397569
 30
0.0
 10
-3.554563395182291
 20
-4.766892496744791
 30
0.0
 10
-2.268853759765624
 20
-4.669051784939235
 30
0.0
 10
-1.53573744032118
 20
-3.815357123480902
 30
0.0
 10
-1.226367865668402
 20
-3.45500013563368
 30
0.0
 10
-1.052735053168402
 20
-2.997491455078124
 30
0.0
 10
-1.044466824001736
 20
-2.522068277994791
 30
0.0
  0
SPLINE
  5
B4
100
AcDbEntity
  8
PEGA_345
 62
     7
100
AcDbSpline
210
0.0
220
0.0
230
-1.0
 70
     8
 71
     3
 72
    14
 73
    10
 74
     0
 42
0.0000001
 43
0.0000001
 40
0.0
 40
0.0
 40
0.0
 40
0.0
 40
1.0
 40
1.0
 40
1.0
 40
2.0
 40
2.0
 40
2.0
 40
3.0
 40
3.0
 40
3.0
 40
3.0
 10
9.160250515407986
 20
4.217916531032985
 30
0.0
 10
9.176097954644095
 20
4.355031331380208
 30
0.0
 10
9.078257242838541
 20
4.479054768880208
 30
0.0
 10
8.94183146158854
 20
4.495591227213541
 30
0.0
 10
8.804716661241318
 20
4.511438666449651
 30
0.0
 10
8.680693223741318
 20
4.413597954644096
 30
0.0
 10
8.664845784505207
 20
4.277172173394096
 30
0.0
 10
8.660711669921873
 20
4.242032199435763
 30
0.0
 10
8.663467746310763
 20
4.206203206380208
 30
0.0
 10
8.674492051866318
 20
4.172441270616318
 30
0.0
  0
LINE
  5
B3
100
AcDbEntity
  8
PEGA_345
 62
     7
100
AcDbLine
 10
8.957679
 20
3.514428
 30
0.0
 11
9.57504
 21
4.281306
 31
0.0
  0
SPLINE
  5
B2
100
AcDbEntity
  8
PEGA_345
 62
     7
100
AcDbSpline
210
0.0
220
0.0
230
-1.0
 70
     8
 71
     3
 72
     8
 73
     4
 74
     0
 42
0.0000001
 43
0.0000001
 40
0.0
 40
0.0
 40
0.0
 40
0.0
 40
1.0
 40
1.0
 40
1.0
 40
1.0
 10
9.933329942491319
 20
2.239053683810763
 30
0.0
 10
9.065165879991319
 20
1.498358154296874
 30
0.0
 10
8.302421739366318
 20
0.642596435546875
 30
0.0
 10
7.665079074435762
 20
-0.3041158040364583
 30
0.0
  0
LINE
  5
B1
100
AcDbEntity
  8
PEGA_345
 62
     7
100
AcDbLine
 10
10.498326
 20
4.7774
 30
0.0
 11
10.29851
 21
4.845613
 31
0.0
  0
LINE
  5
B0
100
AcDbEntity
  8
PEGA_345
 62
     7
100
AcDbLine
 10
10.58652
 20
4.639596
 30
0.0
 11
10.498326
 21
4.7774
 31
0.0
  0
LINE
  5
AF
100
AcDbEntity
  8
PEGA_345
 62
     7
100
AcDbLine
 10
10.558959
 20
4.493524
 30
0.0
 11
10.58652
 21
4.639596
 31
0.0
  0
LINE
  5
AE
100
AcDbEntity
  8
PEGA_345
 62
     7
100
AcDbLine
 10
10.414265
 20
4.356409
 30
0.0
 11
10.558959
 21
4.493524
 31
0.0
  0
LINE
  5
AD
100
AcDbEntity
  8
PEGA_345
 62
     7
100
AcDbLine
 10
10.565849
 20
4.344007
 30
0.0
 11
10.401863
 21
4.355031
 31
0.0
  0
LINE
  5
AC
100
AcDbEntity
  8
PEGA_345
 62
     7
100
AcDbLine
 10
9.167141
 20
3.770054
 30
0.0
 11
9.144403
 21
4.312312
 31
0.0
  0
LINE
  5
AB
100
AcDbEntity
  8
PEGA_345
 62
     7
100
AcDbLine
 10
9.773478
 20
4.506616
 30
0.0
 11
9.402785
 21
4.100094
 31
0.0
  0
LINE
  5
AA
100
AcDbEntity
  8
PEGA_345
 62
     7
100
AcDbLine
 10
10.33365
 20
4.846991
 30
0.0
 11
9.773478
 21
4.506616
 31
0.0
  0
LINE
  5
A9
100
AcDbEntity
  8
PEGA_345
 62
     7
100
AcDbLine
 10
10.401863
 20
4.355031
 30
0.0
 11
9.896812
 21
3.911303
 31
0.0
  0
LINE
  5
A8
100
AcDbEntity
  8
PEGA_345
 62
     7
100
AcDbLine
 10
10.73397
 20
3.998119
 30
0.0
 11
10.739482
 21
4.189667
 31
0.0
  0
LINE
  5
A7
100
AcDbEntity
  8
PEGA_345
 62
     7
100
AcDbLine
 10
10.848347
 20
3.025913
 30
0.0
 11
10.68505
 21
2.823342
 31
0.0
  0
LINE
  5
A6
100
AcDbEntity
  8
PEGA_345
 62
     7
100
AcDbLine
 10
10.804939
 20
3.189211
 30
0.0
 11
10.848347
 21
3.025913
 31
0.0
  0
SPLINE
  5
A5
100
AcDbEntity
  8
PEGA_345
 62
     7
100
AcDbSpline
210
0.0
220
0.0
230
1.0
 70
     8
 71
     3
 72
     8
 73
     4
 74
     0
 42
0.0000001
 43
0.0000001
 40
0.0
 40
0.0
 40
0.0
 40
0.0
 40
1.0
 40
1.0
 40
1.0
 40
1.0
 10
9.714221869574652
 20
2.029591878255208
 30
0.0
 10
10.07802395290798
 20
2.24112074110243
 30
0.0
 10
10.40530802408854
 20
2.509149169921874
 30
0.0
 10
10.68504977756076
 20
2.823341878255208
 30
0.0
  0
LINE
  5
A4
100
AcDbEntity
  8
PEGA_345
 62
     7
100
AcDbLine
 10
10.649221
 20
3.284985
 30
0.0
 11
10.246834
 21
2.99353
 31
0.0
  0
LINE
  5
A3
100
AcDbEntity
  8
PEGA_345
 62
     7
100
AcDbLine
 10
10.584453
 20
3.863761
 30
0.0
 11
10.083536
 21
3.498581
 31
0.0
  0
LINE
  5
A2
100
AcDbEntity
  8
PEGA_345
 62
     7
100
AcDbLine
 10
10.789092
 20
3.805194
 30
0.0
 11
10.584453
 21
3.863761
 31
0.0
  0
LINE
  5
A1
100
AcDbEntity
  8
PEGA_345
 62
     7
100
AcDbLine
 10
10.876597
 20
3.659122
 30
0.0
 11
10.789092
 21
3.805194
 31
0.0
  0
LINE
  5
A0
100
AcDbEntity
  8
PEGA_345
 62
     7
100
AcDbLine
 10
10.771177
 20
3.451038
 30
0.0
 11
10.876597
 21
3.659122
 31
0.0
  0
LINE
  5
9F
100
AcDbEntity
  8
PEGA_345
 62
     7
100
AcDbLine
 10
10.649221
 20
3.284985
 30
0.0
 11
10.771177
 21
3.451038
 31
0.0
  0
LINE
  5
9E
100
AcDbEntity
  8
PEGA_345
 62
     7
100
AcDbLine
 10
10.804939
 20
3.189211
 30
0.0
 11
10.649221
 21
3.284985
 31
0.0
  0
LINE
  5
9D
100
AcDbEntity
  8
PEGA_345
 62
     7
100
AcDbLine
 10
9.370401
 20
1.810484
 30
0.0
 11
9.7156
 21
2.008232
 31
0.0
  0
LINE
  5
9C
100
AcDbEntity
  8
PEGA_345
 62
     7
100
AcDbLine
 10
10.576874
 20
3.860316
 30
0.0
 11
10.73397
 21
3.998119
 31
0.0
  0
LINE
  5
9B
100
AcDbEntity
  8
PEGA_345
 62
     7
100
AcDbLine
 10
10.739482
 20
4.189667
 30
0.0
 11
10.565849
 21
4.344007
 31
0.0
  0
SPLINE
  5
9A
100
AcDbEntity
  8
PEGA_345
 62
     7
100
AcDbSpline
210
0.0
220
0.0
230
-1.0
 70
     8
 71
     3
 72
     8
 73
     4
 74
     0
 42
0.0000001
 43
0.0000001
 40
0.0
 40
0.0
 40
0.0
 40
0.0
 40
1.0
 40
1.0
 40
1.0
 40
1.0
 10
1.542799886067708
 20
-2.226479085286458
 30
0.0
 10
1.049462212456597
 20
-1.232224527994791
 30
0.0
 10
-0.0419440375434028
 20
-0.684454345703125
 30
0.0
 10
-1.134039306640624
 20
-0.8815138075086805
 30
0.0
  0
SPLINE
  5
99
100
AcDbEntity
  8
PEGA_345
 62
     7
100
AcDbSpline
210
0.0
220
0.0
230
-1.0
 70
     8
 71
     3
 72
    11
 73
     7
 74
     0
 42
0.0000001
 43
0.0000001
 40
0.0
 40
0.0
 40
0.0
 40
0.0
 40
1.0
 40
1.0
 40
1.0
 40
2.0
 40
2.0
 40
2.0
 40
2.0
 10
-1.034820556640625
 20
-1.425838894314235
 30
0.0
 10
-0.9562723795572916
 20
-0.5163336859809027
 30
0.0
 10
-1.630133056640624
 20
0.2849955240885416
 30
0.0
 10
-2.539638264973957
 20
0.363543701171875
 30
0.0
 10
-3.205919731987846
 20
0.4214213053385416
 30
0.0
 10
-3.841195339626736
 20
0.072088623046875
 30
0.0
 10
-4.14953138563368
 20
-0.5211568196614583
 30
0.0
  0
LINE
  5
98
100
AcDbEntity
  8
PEGA_345
 62
     7
100
AcDbLine
 10
8.686894
 20
2.923939
 30
0.0
 11
8.686205
 21
2.601478
 31
0.0
  0
LINE
  5
97
100
AcDbEntity
  8
PEGA_345
 62
     7
100
AcDbLine
 10
8.60559
 20
3.394539
 30
0.0
 11
8.686894
 21
2.923939
 31
0.0
  0
LINE
  5
96
100
AcDbEntity
  8
PEGA_345
 62
     7
100
AcDbLine
 10
8.695163
 20
4.37019
 30
0.0
 11
8.60559
 21
3.394539
 31
0.0
  0
LINE
  5
95
100
AcDbEntity
  8
PEGA_345
 62
     7
100
AcDbLine
 10
8.604212
 20
2.442314
 30
0.0
 11
8.649687
 21
2.580807
 31
0.0
  0
SPLINE
  5
94
100
AcDbEntity
  8
PEGA_345
 62
     7
100
AcDbSpline
210
0.0
220
0.0
230
-1.0
 70
     8
 71
     3
 72
     8
 73
     4
 74
     0
 42
0.0000001
 43
0.0000001
 40
0.0
 40
0.0
 40
0.0
 40
0.0
 40
1.0
 40
1.0
 40
1.0
 40
1.0
 10
4.109396023220485
 20
-1.571910942925347
 30
0.0
 10
2.666934543185763
 20
-1.856475830078124
 30
0.0
 10
1.253411865234374
 20
-2.271954345703124
 30
0.0
 10
-0.1132575141059028
 20
-2.814212375217013
 30
0.0
  0
SPLINE
  5
93
100
AcDbEntity
  8
PEGA_345
 62
     7
100
AcDbSpline
210
0.0
220
0.0
230
1.0
 70
     8
 71
     3
 72
     8
 73
     4
 74
     0
 42
0.0000001
 43
0.0000001
 40
0.0
 40
0.0
 40
0.0
 40
0.0
 40
1.0
 40
1.0
 40
1.0
 40
1.0
 10
5.849513753255207
 20
-2.309161376953124
 30
0.0
 10
6.70320841471354
 20
-1.916420491536458
 30
0.0
 10
7.359154595269096
 20
-1.192261420355902
 30
0.0
 10
7.665079074435762
 20
-0.3041158040364583
 30
0.0
  0
SPLINE
  5
92
100
AcDbEntity
  8
PEGA_345
 62
     7
100
AcDbSpline
210
0.0
220
0.0
230
-1.0
 70
     8
 71
     3
 72
     8
 73
     4
 74
     0
 42
0.0000001
 43
0.0000001
 40
0.0
 40
0.0
 40
0.0
 40
0.0
 40
1.0
 40
1.0
 40
1.0
 40
1.0
 10
8.652443440755208
 20
2.49536878797743
 30
0.0
 10
7.032559543185763
 20
1.262024603949652
 30
0.0
 10
5.513272433810763
 20
-0.0980990939670139
 30
0.0
 10
4.109396023220485
 20
-1.571910942925347
 30
0.0
  0
LINE
  5
91
100
AcDbEntity
  8
PEGA_345
 62
     7
100
AcDbLine
 10
-8.61093
 20
5.624205
 30
0.0
 11
-8.419383
 21
5.534632
 31
0.0
  0
LINE
  5
90
100
AcDbEntity
  8
PEGA_345
 62
     7
100
AcDbLine
 10
-8.770093
 20
5.58493
 30
0.0
 11
-8.61093
 21
5.624205
 31
0.0
  0
LINE
  5
8F
100
AcDbEntity
  8
PEGA_345
 62
     7
100
AcDbLine
 10
-8.851398
 20
5.460907
 30
0.0
 11
-8.770093
 21
5.58493
 31
0.0
  0
LINE
  5
8E
100
AcDbEntity
  8
PEGA_345
 62
     7
100
AcDbLine
 10
-8.444187
 20
5.560126
 30
0.0
 11
-8.275378
 21
4.926917
 31
0.0
  0
LINE
  5
8D
100
AcDbEntity
  8
PEGA_345
 62
     7
100
AcDbLine
 10
-8.841751
 20
5.26178
 30
0.0
 11
-8.851398
 21
5.460907
 31
0.0
  0
LINE
  5
8C
100
AcDbEntity
  8
PEGA_345
 62
     7
100
AcDbLine
 10
-8.959574
 20
5.357554
 30
0.0
 11
-8.833483
 21
5.252134
 31
0.0
  0
LINE
  5
8B
100
AcDbEntity
  8
PEGA_345
 62
     7
100
AcDbLine
 10
-10.075785
 20
4.601011
 30
0.0
 11
-10.097833
 21
4.34194
 31
0.0
  0
LINE
  5
8A
100
AcDbEntity
  8
PEGA_345
 62
     7
100
AcDbLine
 10
-9.931091
 20
4.689206
 30
0.0
 11
-10.075785
 21
4.601011
 31
0.0
  0
SPLINE
  5
89
100
AcDbEntity
  8
PEGA_345
 62
     7
100
AcDbSpline
210
0.0
220
0.0
230
-1.0
 70
     8
 71
     3
 72
     8
 73
     4
 74
     0
 42
0.0000001
 43
0.0000001
 40
0.0
 40
0.0
 40
0.0
 40
0.0
 40
1.0
 40
1.0
 40
1.0
 40
1.0
 10
-10.09783325195312
 20
4.341939968532985
 30
0.0
 10
-10.11299167209201
 20
3.92163831922743
 30
0.0
 10
-10.06200425889756
 20
3.501336669921874
 30
0.0
 10
-9.946249050564235
 20
3.09688245985243
 30
0.0
  0
LINE
  5
88
100
AcDbEntity
  8
PEGA_345
 62
     7
100
AcDbLine
 10
-9.752635
 20
4.650621
 30
0.0
 11
-9.663751
 21
4.161417
 31
0.0
  0
LINE
  5
87
100
AcDbEntity
  8
PEGA_345
 62
     7
100
AcDbLine
 10
-9.319931
 20
5.223884
 30
0.0
 11
-9.191773
 21
5.365822
 31
0.0
  0
LINE
  5
86
100
AcDbEntity
  8
PEGA_345
 62
     7
100
AcDbLine
 10
-9.302016
 20
5.015801
 30
0.0
 11
-9.319931
 21
5.223884
 31
0.0
  0
LINE
  5
85
100
AcDbEntity
  8
PEGA_345
 62
     7
100
AcDbLine
 10
-9.305461
 20
5.02338
 30
0.0
 11
-9.196596
 21
4.413598
 31
0.0
  0
LINE
  5
84
100
AcDbEntity
  8
PEGA_345
 62
     7
100
AcDbLine
 10
-9.493564
 20
5.123288
 30
0.0
 11
-9.305461
 21
5.02338
 31
0.0
  0
LINE
  5
83
100
AcDbEntity
  8
PEGA_345
 62
     7
100
AcDbLine
 10
-9.658239
 20
5.077812
 30
0.0
 11
-9.493564
 21
5.123288
 31
0.0
  0
LINE
  5
82
100
AcDbEntity
  8
PEGA_345
 62
     7
100
AcDbLine
 10
-9.725763
 20
4.85457
 30
0.0
 11
-9.658239
 21
5.077812
 31
0.0
  0
LINE
  5
81
100
AcDbEntity
  8
PEGA_345
 62
     7
100
AcDbLine
 10
-9.752635
 20
4.650621
 30
0.0
 11
-9.725763
 21
4.85457
 31
0.0
  0
LINE
  5
80
100
AcDbEntity
  8
PEGA_345
 62
     7
100
AcDbLine
 10
-9.931091
 20
4.689206
 30
0.0
 11
-9.752635
 21
4.650621
 31
0.0
  0
LINE
  5
7F
100
AcDbEntity
  8
PEGA_345
 62
     7
100
AcDbLine
 10
-8.833483
 20
5.252134
 30
0.0
 11
-8.776295
 21
4.582408
 31
0.0
  0
LINE
  5
7E
100
AcDbEntity
  8
PEGA_345
 62
     7
100
AcDbLine
 10
-9.191773
 20
5.365822
 30
0.0
 11
-8.959574
 21
5.357554
 31
0.0
  0
LINE
  5
7D
100
AcDbEntity
  8
PEGA_345
 62
     7
100
AcDbLine
 10
-8.346347
 20
3.975382
 30
0.0
 11
-7.954984
 21
4.350897
 31
0.0
  0
LINE
  5
7C
100
AcDbEntity
  8
PEGA_345
 62
     7
100
AcDbLine
 10
-8.585436
 20
3.032115
 30
0.0
 11
-8.80799
 21
2.798537
 31
0.0
  0
LINE
  5
7B
100
AcDbEntity
  8
PEGA_345
 62
     7
100
AcDbLine
 10
-8.200964
 20
3.315302
 30
0.0
 11
-8.585436
 21
3.032115
 31
0.0
  0
LINE
  5
7A
100
AcDbEntity
  8
PEGA_345
 62
     7
100
AcDbLine
 10
-8.858977
 20
2.626971
 30
0.0
 11
-8.796276
 21
2.758574
 31
0.0
  0
LINE
  5
79
100
AcDbEntity
  8
PEGA_345
 62
     7
100
AcDbLine
 10
-8.858977
 20
2.626971
 30
0.0
 11
-8.763892
 21
1.948288
 31
0.0
  0
SPLINE
  5
78
100
AcDbEntity
  8
PEGA_345
 62
     7
100
AcDbSpline
210
0.0
220
0.0
230
-1.0
 70
     8
 71
     3
 72
    14
 73
    10
 74
     0
 42
0.0000001
 43
0.0000001
 40
0.0
 40
0.0
 40
0.0
 40
0.0
 40
1.0
 40
1.0
 40
1.0
 40
2.0
 40
2.0
 40
2.0
 40
3.0
 40
3.0
 40
3.0
 40
3.0
 10
-7.713138156467013
 20
3.925083414713541
 30
0.0
 10
-7.591870795355902
 20
3.991229248046874
 30
0.0
 10
-7.547773573133679
 20
4.142813449435763
 30
0.0
 10
-7.613230387369791
 20
4.263391791449651
 30
0.0
 10
-7.679376220703124
 20
4.384659152560763
 30
0.0
 10
-7.830960422092013
 20
4.428756374782985
 30
0.0
 10
-7.952227783203124
 20
4.362610541449652
 30
0.0
 10
-7.983233642578124
 20
4.346074083116318
 30
0.0
 10
-8.01010538736979
 20
4.322647433810763
 30
0.0
 10
-8.031464979383679
 20
4.294397650824651
 30
0.0
  0
LINE
  5
77
100
AcDbEntity
  8
PEGA_345
 62
     7
100
AcDbLine
 10
-7.591182
 20
4.08218
 30
0.0
 11
-8.200964
 21
3.315302
 31
0.0
  0
LINE
  5
76
100
AcDbEntity
  8
PEGA_345
 62
     7
100
AcDbLine
 10
-4.662162
 20
-1.169524
 30
0.0
 11
-4.005871
 21
-0.292402
 31
0.0
  0
LINE
  5
75
100
AcDbEntity
  8
PEGA_345
 62
     7
100
AcDbLine
 10
-4.986001
 20
-1.454089
 30
0.0
 11
-5.107957
 21
-1.519545
 31
0.0
  0
LINE
  5
74
100
AcDbEntity
  8
PEGA_345
 62
     7
100
AcDbLine
 10
-8.372529
 20
3.646031
 30
0.0
 11
-8.28778
 21
4.626505
 31
0.0
  0
LINE
  5
73
100
AcDbEntity
  8
PEGA_345
 62
     7
100
AcDbLine
 10
-8.275378
 20
4.926917
 30
0.0
 11
-8.288469
 21
4.37708
 31
0.0
  0
SPLINE
  5
72
100
AcDbEntity
  8
PEGA_345
 62
     7
100
AcDbSpline
210
0.0
220
0.0
230
1.0
 70
     8
 71
     3
 72
     8
 73
     4
 74
     0
 42
0.0000001
 43
0.0000001
 40
0.0
 40
0.0
 40
0.0
 40
0.0
 40
1.0
 40
1.0
 40
1.0
 40
1.0
 10
-1.059625244140624
 20
-2.243704562717013
 30
0.0
 10
-1.059625244140624
 20
-2.240259467230902
 30
0.0
 10
-1.060314263237847
 20
-2.236814371744791
 30
0.0
 10
-1.060314263237847
 20
-2.23336927625868
 30
0.0
  0
LINE
  5
71
100
AcDbEntity
  8
PEGA_345
 62
     7
100
AcDbLine
 10
-1.055491
 20
-2.632311
 30
0.0
 11
-0.923888
 21
-2.47177
 31
0.0
  0
LINE
  5
70
100
AcDbEntity
  8
PEGA_345
 62
     7
100
AcDbLine
 10
-0.923888
 20
-2.47177
 30
0.0
 11
-0.848785
 21
-2.588214
 31
0.0
  0
LINE
  5
6F
100
AcDbEntity
  8
PEGA_345
 62
     7
100
AcDbLine
 10
-1.021729
 20
-2.491751
 30
0.0
 11
-1.029308
 21
-1.273566
 31
0.0
  0
LINE
  5
6E
100
AcDbEntity
  8
PEGA_345
 62
     7
100
AcDbLine
 10
-1.041022
 20
-3.5115
 30
0.0
 11
-1.22499
 21
-3.585914
 31
0.0
  0
LINE
  5
6D
100
AcDbEntity
  8
PEGA_345
 62
     7
100
AcDbLine
 10
-1.22499
 20
-3.585914
 30
0.0
 11
-1.23188
 21
-3.437775
 31
0.0
  0
LINE
  5
6C
100
AcDbEntity
  8
PEGA_345
 62
     7
100
AcDbLine
 10
-0.848785
 20
-2.588214
 30
0.0
 11
-1.041022
 21
-3.5115
 31
0.0
  0
LINE
  5
6B
100
AcDbEntity
  8
PEGA_345
 62
     7
100
AcDbLine
 10
-10.173625
 20
1.873874
 30
0.0
 11
-9.849097
 21
2.700696
 31
0.0
  0
LINE
  5
6A
100
AcDbEntity
  8
PEGA_345
 62
     7
100
AcDbLine
 10
-8.805233
 20
1.087014
 30
0.0
 11
-8.663985
 21
-0.111879
 31
0.0
  0
LINE
  5
69
100
AcDbEntity
  8
PEGA_345
 62
     7
100
AcDbLine
 10
-5.392522
 20
-2.395289
 30
0.0
 11
-5.329132
 21
-2.557208
 31
0.0
  0
LINE
  5
68
100
AcDbEntity
  8
PEGA_345
 62
     7
100
AcDbLine
 10
-5.329132
 20
-2.557208
 30
0.0
 11
-5.175481
 21
-2.426295
 31
0.0
  0
LINE
  5
67
100
AcDbEntity
  8
PEGA_345
 62
     7
100
AcDbLine
 10
-9.849097
 20
2.700696
 30
0.0
 11
-9.961407
 21
3.082413
 31
0.0
  0
SPLINE
  5
66
100
AcDbEntity
  8
PEGA_345
 62
     7
100
AcDbSpline
210
0.0
220
0.0
230
-1.0
 70
     8
 71
     3
 72
    11
 73
     7
 74
     0
 42
0.0000001
 43
0.0000001
 40
0.0
 40
0.0
 40
0.0
 40
0.0
 40
1.0
 40
1.0
 40
1.0
 40
2.0
 40
2.0
 40
2.0
 40
2.0
 10
-6.706481255425346
 20
-0.1780253092447916
 30
0.0
 10
-7.453377956814235
 20
0.4221103244357639
 30
0.0
 10
-8.545473225911457
 20
0.3035990397135416
 30
0.0
 10
-9.145608859592012
 20
-0.442608642578125
 30
0.0
 10
-9.173169623480902
 20
-0.4777486165364583
 30
0.0
 10
-9.200041368272568
 20
-0.5128885904947916
 30
0.0
 10
-9.224846055772568
 20
-0.5494066026475694
 30
0.0
  0
SPLINE
  5
65
100
AcDbEntity
  8
PEGA_345
 62
     7
100
AcDbSpline
210
0.0
220
0.0
230
-1.0
 70
     8
 71
     3
 72
     8
 73
     4
 74
     0
 42
0.0000001
 43
0.0000001
 40
0.0
 40
0.0
 40
0.0
 40
0.0
 40
1.0
 40
1.0
 40
1.0
 40
1.0
 10
-3.539404975043402
 20
0.0996493869357639
 30
0.0
 10
-4.581546359592013
 20
0.4965243869357639
 30
0.0
 10
-5.748744710286457
 20
0.3938605414496528
 30
0.0
 10
-6.706481255425346
 20
-0.1780253092447916
 30
0.0
  0
LINE
  5
64
100
AcDbEntity
  8
PEGA_345
 62
     7
100
AcDbLine
 10
-4.954306
 20
-1.680776
 30
0.0
 11
-4.986001
 21
-1.454089
 31
0.0
  0
LINE
  5
63
100
AcDbEntity
  8
PEGA_345
 62
     7
100
AcDbLine
 10
-5.107957
 20
-1.519545
 30
0.0
 11
-5.392522
 21
-2.395289
 31
0.0
  0
LINE
  5
62
100
AcDbEntity
  8
PEGA_345
 62
     7
100
AcDbLine
 10
-8.763892
 20
1.948288
 30
0.0
 11
-8.805233
 21
1.087014
 31
0.0
  0
SPLINE
  5
61
100
AcDbEntity
  8
PEGA_345
 62
     7
100
AcDbSpline
210
0.0
220
0.0
230
1.0
 70
     8
 71
     3
 72
     8
 73
     4
 74
     0
 42
0.0000001
 43
0.0000001
 40
0.0
 40
0.0
 40
0.0
 40
0.0
 40
1.0
 40
1.0
 40
1.0
 40
1.0
 10
-0.2479607476128472
 20
-5.613696967230902
 30
0.0
 10
1.265814208984374
 20
-5.327065022786458
 30
0.0
 10
2.722400580512152
 20
-4.791697184244791
 30
0.0
 10
4.061853705512151
 20
-4.030331081814235
 30
0.0
  0
ENDBLK
  5
BA
100
AcDbEntity
  8
PEGA_345
100
AcDbBlockEnd
  0
BLOCK
  5
D1
100
AcDbEntity
  8
PEGA_345
 62
     7
100
AcDbBlockBegin
  2
AI9-BLK8
 70
     0
 10
0.0
 20
0.0
 30
0.0
  3
AI9-BLK8
  1

  0
POLYLINE
  5
D3
100
AcDbEntity
  8
PEGA_345
 62
     7
100
AcDb2dPolyline
 66
     1
 10
0.0
 20
0.0
 30
0.0
 70
     1
  0
VERTEX
  5
D4
100
AcDbEntity
  8
PEGA_345
 62
     7
100
AcDbVertex
100
AcDb2dVertex
 10
-1.5875
 20
-2.749875
 30
0.0
  0
VERTEX
  5
D5
100
AcDbEntity
  8
PEGA_345
 62
     7
100
AcDbVertex
100
AcDb2dVertex
 10
-3.175
 20
0.0
 30
0.0
  0
VERTEX
  5
D6
100
AcDbEntity
  8
PEGA_345
 62
     7
100
AcDbVertex
100
AcDb2dVertex
 10
-1.5875
 20
2.749875
 30
0.0
  0
VERTEX
  5
D7
100
AcDbEntity
  8
PEGA_345
 62
     7
100
AcDbVertex
100
AcDb2dVertex
 10
1.5875
 20
2.749875
 30
0.0
  0
VERTEX
  5
D8
100
AcDbEntity
  8
PEGA_345
 62
     7
100
AcDbVertex
100
AcDb2dVertex
 10
3.175
 20
0.0
 30
0.0
  0
VERTEX
  5
D9
100
AcDbEntity
  8
PEGA_345
 62
     7
100
AcDbVertex
100
AcDb2dVertex
 10
1.5875
 20
-2.749875
 30
0.0
  0
SEQEND
  5
DA
100
AcDbEntity
  8
PEGA_345
 62
     7
  0
MTEXT
  5
D2
100
AcDbEntity
  8
PEGA_345
 62
     7
100
AcDbMText
 10
-2.107193
 20
1.565468
 30
0.0
 40
2.624835
 41
0.0
 71
     1
 72
     2
  1
\fArial|b0|i0;A1
  7
STD
 11
1.000001
 21
0.0
 31
0.0
  0
ENDBLK
  5
DB
100
AcDbEntity
  8
PEGA_345
100
AcDbBlockEnd
  0
BLOCK
  5
E0
100
AcDbEntity
  8
PEGA_345
 62
     7
100
AcDbBlockBegin
  2
AI9-BLK9
 70
     0
 10
0.0
 20
0.0
 30
0.0
  3
AI9-BLK9
  1

  0
POLYLINE
  5
E2
100
AcDbEntity
  8
PEGA_345
 62
     7
100
AcDb2dPolyline
 66
     1
 10
0.0
 20
0.0
 30
0.0
 70
     1
  0
VERTEX
  5
E3
100
AcDbEntity
  8
PEGA_345
 62
     7
100
AcDbVertex
100
AcDb2dVertex
 10
-1.5875
 20
-2.749703
 30
0.0
  0
VERTEX
  5
E4
100
AcDbEntity
  8
PEGA_345
 62
     7
100
AcDbVertex
100
AcDb2dVertex
 10
-3.175
 20
0.0
 30
0.0
  0
VERTEX
  5
E5
100
AcDbEntity
  8
PEGA_345
 62
     7
100
AcDbVertex
100
AcDb2dVertex
 10
-1.5875
 20
2.749703
 30
0.0
  0
VERTEX
  5
E6
100
AcDbEntity
  8
PEGA_345
 62
     7
100
AcDbVertex
100
AcDb2dVertex
 10
1.5875
 20
2.749703
 30
0.0
  0
VERTEX
  5
E7
100
AcDbEntity
  8
PEGA_345
 62
     7
100
AcDbVertex
100
AcDb2dVertex
 10
3.175
 20
0.0
 30
0.0
  0
VERTEX
  5
E8
100
AcDbEntity
  8
PEGA_345
 62
     7
100
AcDbVertex
100
AcDb2dVertex
 10
1.5875
 20
-2.749703
 30
0.0
  0
SEQEND
  5
E9
100
AcDbEntity
  8
PEGA_345
 62
     7
  0
MTEXT
  5
E1
100
AcDbEntity
  8
PEGA_345
 62
     7
100
AcDbMText
 10
-2.107193
 20
1.565468
 30
0.0
 40
2.624835
 41
0.0
 71
     1
 72
     2
  1
\fArial|b0|i0;E1
  7
STD
 11
1.000001
 21
0.0
 31
0.0
  0
ENDBLK
  5
EA
100
AcDbEntity
  8
PEGA_345
100
AcDbBlockEnd
  0
BLOCK
  5
110
100
AcDbEntity
  8
PEGA_345
  6
AI9-LTYPE1
 62
     7
100
AcDbBlockBegin
  2
AI9-BLK10
 70
     0
 10
0.0
 20
0.0
 30
0.0
  3
AI9-BLK10
  1

  0
MTEXT
  5
120
100
AcDbEntity
  8
PEGA_345
 62
     7
100
AcDbMText
 10
-45.942325
 20
-46.968365
 30
0.0
 40
2.099868
 41
0.0
 71
     1
 72
     2
  1
\fArial|b0|i0;310.84" Recomended Safety / Maintenance Area 40" From All Components
  7
STD
 11
0.0
 21
1.0
 31
0.0
  0
LINE
  5
11F
100
AcDbEntity
  8
PEGA_345
 62
     7
100
AcDbLine
 10
46.372536
 20
98.690617
 30
0.0
 11
-44.548013
 21
98.690617
 31
0.0
  0
LINE
  5
11E
100
AcDbEntity
  8
PEGA_345
 62
     7
100
AcDbLine
 10
20.64973
 20
-98.690617
 30
0.0
 11
-44.548013
 21
-98.690617
 31
0.0
  0
LINE
  5
11D
100
AcDbEntity
  8
PEGA_345
 62
     7
100
AcDbLine
 10
-42.784124
 20
98.690617
 30
0.0
 11
-42.784124
 21
-98.690617
 31
0.0
  0
POLYLINE
  5
118
100
AcDbEntity
  8
PEGA_345
 62
     7
100
AcDb2dPolyline
 66
     1
 10
0.0
 20
0.0
 30
0.0
 70
     1
  0
VERTEX
  5
119
100
AcDbEntity
  8
PEGA_345
 62
     7
100
AcDbVertex
100
AcDb2dVertex
 10
-43.299855
 20
97.003726
 30
0.0
  0
VERTEX
  5
11A
100
AcDbEntity
  8
PEGA_345
 62
     7
100
AcDbVertex
100
AcDb2dVertex
 10
-42.784124
 20
98.690617
 30
0.0
  0
VERTEX
  5
11B
100
AcDbEntity
  8
PEGA_345
 62
     7
100
AcDbVertex
100
AcDb2dVertex
 10
-42.268393
 20
97.003726
 30
0.0
  0
SEQEND
  5
11C
100
AcDbEntity
  8
PEGA_345
 62
     7
  0
HATCH
  5
117
100
AcDbEntity
  8
PEGA_345
 62
     7
100
AcDbHatch
 10
0.0
 20
0.0
 30
0.0
210
0.0
220
0.0
230
1.0
  2
SOLID
 70
     1
 71
     0
 91
        1
 92
        3
 72
     0
 73
     1
 93
        3
 10
-43.2998548719618
 20
97.00372585720486
 10
-42.78412407769097
 20
98.69061686197916
 10
-42.26839328342014
 20
97.00372585720486
 97
        0
 75
     0
 76
     1
 98
        1
 10
0.0
 20
0.0
  0
POLYLINE
  5
112
100
AcDbEntity
  8
PEGA_345
 62
     7
100
AcDb2dPolyline
 66
     1
 10
0.0
 20
0.0
 30
0.0
 70
     1
  0
VERTEX
  5
113
100
AcDbEntity
  8
PEGA_345
 62
     7
100
AcDbVertex
100
AcDb2dVertex
 10
-42.268393
 20
-97.003898
 30
0.0
  0
VERTEX
  5
114
100
AcDbEntity
  8
PEGA_345
 62
     7
100
AcDbVertex
100
AcDb2dVertex
 10
-42.784124
 20
-98.690617
 30
0.0
  0
VERTEX
  5
115
100
AcDbEntity
  8
PEGA_345
 62
     7
100
AcDbVertex
100
AcDb2dVertex
 10
-43.299855
 20
-97.003898
 30
0.0
  0
SEQEND
  5
116
100
AcDbEntity
  8
PEGA_345
 62
     7
  0
HATCH
  5
111
100
AcDbEntity
  8
PEGA_345
 62
     7
100
AcDbHatch
 10
0.0
 20
0.0
 30
0.0
210
0.0
220
0.0
230
1.0
  2
SOLID
 70
     1
 71
     0
 91
        1
 92
        3
 72
     0
 73
     1
 93
        3
 10
-42.26839328342014
 20
-97.00389811197915
 10
-42.78412407769097
 20
-98.69061686197916
 10
-43.2998548719618
 20
-97.00389811197915
 97
        0
 75
     0
 76
     1
 98
        1
 10
0.0
 20
0.0
  0
ENDBLK
  5
121
100
AcDbEntity
  8
PEGA_345
100
AcDbBlockEnd
  0
BLOCK
  5
124
100
AcDbEntity
  8
PEGA_345
 62
     7
100
AcDbBlockBegin
  2
AI9-BLK11
 70
     0
 10
0.0
 20
0.0
 30
0.0
  3
AI9-BLK11
  1

  0
POLYLINE
  5
126
100
AcDbEntity
  8
PEGA_345
 62
     7
100
AcDb2dPolyline
 66
     1
 10
0.0
 20
0.0
 30
0.0
 70
     1
  0
VERTEX
  5
127
100
AcDbEntity
  8
PEGA_345
 62
     7
100
AcDbVertex
100
AcDb2dVertex
 10
-1.5875
 20
-2.750047
 30
0.0
  0
VERTEX
  5
128
100
AcDbEntity
  8
PEGA_345
 62
     7
100
AcDbVertex
100
AcDb2dVertex
 10
-3.175
 20
0.000172
 30
0.0
  0
VERTEX
  5
129
100
AcDbEntity
  8
PEGA_345
 62
     7
100
AcDbVertex
100
AcDb2dVertex
 10
-1.5875
 20
2.750047
 30
0.0
  0
VERTEX
  5
12A
100
AcDbEntity
  8
PEGA_345
 62
     7
100
AcDbVertex
100
AcDb2dVertex
 10
1.5875
 20
2.750047
 30
0.0
  0
VERTEX
  5
12B
100
AcDbEntity
  8
PEGA_345
 62
     7
100
AcDbVertex
100
AcDb2dVertex
 10
3.175
 20
0.000172
 30
0.0
  0
VERTEX
  5
12C
100
AcDbEntity
  8
PEGA_345
 62
     7
100
AcDbVertex
100
AcDb2dVertex
 10
1.5875
 20
-2.750047
 30
0.0
  0
SEQEND
  5
12D
100
AcDbEntity
  8
PEGA_345
 62
     7
  0
MTEXT
  5
125
100
AcDbEntity
  8
PEGA_345
 62
     7
100
AcDbMText
 10
-1.675694
 20
1.040673
 30
0.0
 40
2.099868
 41
0.0
 71
     1
 72
     2
  1
\fArial|b0|i0;A1
  7
STD
 11
1.000001
 21
0.0
 31
0.0
  0
ENDBLK
  5
12E
100
AcDbEntity
  8
PEGA_345
100
AcDbBlockEnd
  0
BLOCK
  5
131
100
AcDbEntity
  8
PEGA_345
 62
     7
100
AcDbBlockBegin
  2
AI9-BLK12
 70
     0
 10
0.0
 20
0.0
 30
0.0
  3
AI9-BLK12
  1

  0
POLYLINE
  5
133
100
AcDbEntity
  8
PEGA_345
 62
     7
100
AcDb2dPolyline
 66
     1
 10
0.0
 20
0.0
 30
0.0
 70
     1
  0
VERTEX
  5
134
100
AcDbEntity
  8
PEGA_345
 62
     7
100
AcDbVertex
100
AcDb2dVertex
 10
-1.5875
 20
-2.749617
 30
0.0
  0
VERTEX
  5
135
100
AcDbEntity
  8
PEGA_345
 62
     7
100
AcDbVertex
100
AcDb2dVertex
 10
-3.175
 20
-0.000086
 30
0.0
  0
VERTEX
  5
136
100
AcDbEntity
  8
PEGA_345
 62
     7
100
AcDbVertex
100
AcDb2dVertex
 10
-1.5875
 20
2.749617
 30
0.0
  0
VERTEX
  5
137
100
AcDbEntity
  8
PEGA_345
 62
     7
100
AcDbVertex
100
AcDb2dVertex
 10
1.5875
 20
2.749617
 30
0.0
  0
VERTEX
  5
138
100
AcDbEntity
  8
PEGA_345
 62
     7
100
AcDbVertex
100
AcDb2dVertex
 10
3.175
 20
-0.000086
 30
0.0
  0
VERTEX
  5
139
100
AcDbEntity
  8
PEGA_345
 62
     7
100
AcDbVertex
100
AcDb2dVertex
 10
1.5875
 20
-2.749617
 30
0.0
  0
SEQEND
  5
13A
100
AcDbEntity
  8
PEGA_345
 62
     7
  0
MTEXT
  5
132
100
AcDbEntity
  8
PEGA_345
 62
     7
100
AcDbMText
 10
-1.675694
 20
1.040415
 30
0.0
 40
2.099868
 41
0.0
 71
     1
 72
     2
  1
\fArial|b0|i0;E1
  7
STD
 11
1.000001
 21
0.0
 31
0.0
  0
ENDBLK
  5
13B
100
AcDbEntity
  8
PEGA_345
100
AcDbBlockEnd
  0
BLOCK
  5
13E
100
AcDbEntity
  8
PEGA_345
 62
     7
100
AcDbBlockBegin
  2
AI9-BLK13
 70
     0
 10
0.0
 20
0.0
 30
0.0
  3
AI9-BLK13
  1

  0
MTEXT
  5
14E
100
AcDbEntity
  8
PEGA_345
 62
     7
100
AcDbMText
 10
-19.878976
 20
-50.007977
 30
0.0
 40
2.099868
 41
0.0
 71
     1
 72
     2
  1
\fArial|b0|i0;109.85" Pega 345 Queen Width
  7
STD
 11
1.000001
 21
0.0
 31
0.0
  0
LINE
  5
14D
100
AcDbEntity
  8
PEGA_345
 62
     7
100
AcDbLine
 10
-34.876166
 20
54.930067
 30
0.0
 11
-34.876166
 21
-54.930067
 31
0.0
  0
LINE
  5
14C
100
AcDbEntity
  8
PEGA_345
 62
     7
100
AcDbLine
 10
34.876166
 20
42.700494
 30
0.0
 11
34.876166
 21
-54.930067
 31
0.0
  0
LINE
  5
14B
100
AcDbEntity
  8
PEGA_345
 62
     7
100
AcDbLine
 10
-34.876166
 20
-53.166178
 30
0.0
 11
34.876166
 21
-53.166178
 31
0.0
  0
POLYLINE
  5
146
100
AcDbEntity
  8
PEGA_345
 62
     7
100
AcDb2dPolyline
 66
     1
 10
0.0
 20
0.0
 30
0.0
 70
     1
  0
VERTEX
  5
147
100
AcDbEntity
  8
PEGA_345
 62
     7
100
AcDbVertex
100
AcDb2dVertex
 10
-33.189447
 20
-53.681909
 30
0.0
  0
VERTEX
  5
148
100
AcDbEntity
  8
PEGA_345
 62
     7
100
AcDbVertex
100
AcDb2dVertex
 10
-34.876166
 20
-53.166178
 30
0.0
  0
VERTEX
  5
149
100
AcDbEntity
  8
PEGA_345
 62
     7
100
AcDbVertex
100
AcDb2dVertex
 10
-33.189447
 20
-52.650447
 30
0.0
  0
SEQEND
  5
14A
100
AcDbEntity
  8
PEGA_345
 62
     7
  0
HATCH
  5
145
100
AcDbEntity
  8
PEGA_345
 62
     7
100
AcDbHatch
 10
0.0
 20
0.0
 30
0.0
210
0.0
220
0.0
230
1.0
  2
SOLID
 70
     1
 71
     0
 91
        1
 92
        3
 72
     0
 73
     1
 93
        3
 10
-33.18944702148437
 20
-53.68190850151909
 10
-34.87616577148437
 20
-53.16617770724826
 10
-33.18944702148437
 20
-52.65044691297743
 97
        0
 75
     0
 76
     1
 98
        1
 10
0.0
 20
0.0
  0
POLYLINE
  5
140
100
AcDbEntity
  8
PEGA_345
 62
     7
100
AcDb2dPolyline
 66
     1
 10
0.0
 20
0.0
 30
0.0
 70
     1
  0
VERTEX
  5
141
100
AcDbEntity
  8
PEGA_345
 62
     7
100
AcDbVertex
100
AcDb2dVertex
 10
33.189447
 20
-52.650447
 30
0.0
  0
VERTEX
  5
142
100
AcDbEntity
  8
PEGA_345
 62
     7
100
AcDbVertex
100
AcDb2dVertex
 10
34.876166
 20
-53.166178
 30
0.0
  0
VERTEX
  5
143
100
AcDbEntity
  8
PEGA_345
 62
     7
100
AcDbVertex
100
AcDb2dVertex
 10
33.189447
 20
-53.681909
 30
0.0
  0
SEQEND
  5
144
100
AcDbEntity
  8
PEGA_345
 62
     7
  0
HATCH
  5
13F
100
AcDbEntity
  8
PEGA_345
 62
     7
100
AcDbHatch
 10
0.0
 20
0.0
 30
0.0
210
0.0
220
0.0
230
1.0
  2
SOLID
 70
     1
 71
     0
 91
        1
 92
        3
 72
     0
 73
     1
 93
        3
 10
33.18944702148437
 20
-52.65044691297743
 10
34.87616577148437
 20
-53.16617770724826
 10
33.18944702148437
 20
-53.68190850151909
 97
        0
 75
     0
 76
     1
 98
        1
 10
0.0
 20
0.0
  0
ENDBLK
  5
14F
100
AcDbEntity
  8
PEGA_345
100
AcDbBlockEnd
  0
BLOCK
  5
152
100
AcDbEntity
  8
PEGA_345
 62
     7
100
AcDbBlockBegin
  2
AI9-BLK14
 70
     0
 10
0.0
 20
0.0
 30
0.0
  3
AI9-BLK14
  1

  0
MTEXT
  5
161
100
AcDbEntity
  8
PEGA_345
 62
     7
100
AcDbMText
 10
-4.032226
 20
-40.744373
 30
0.0
 40
2.099868
 41
0.0
 71
     1
 72
     2
  1
\fArial|b0|i0;54.73"
  7
STD
 11
1.000001
 21
0.0
 31
0.0
  0
LINE
  5
160
100
AcDbEntity
  8
PEGA_345
 62
     7
100
AcDbLine
 10
17.376114
 20
45.666463
 30
0.0
 11
17.376114
 21
-45.666463
 31
0.0
  0
LINE
  5
15F
100
AcDbEntity
  8
PEGA_345
 62
     7
100
AcDbLine
 10
-17.376114
 20
-43.902574
 30
0.0
 11
17.376114
 21
-43.902574
 31
0.0
  0
POLYLINE
  5
15A
100
AcDbEntity
  8
PEGA_345
 62
     7
100
AcDb2dPolyline
 66
     1
 10
0.0
 20
0.0
 30
0.0
 70
     1
  0
VERTEX
  5
15B
100
AcDbEntity
  8
PEGA_345
 62
     7
100
AcDbVertex
100
AcDb2dVertex
 10
-15.689395
 20
-44.418305
 30
0.0
  0
VERTEX
  5
15C
100
AcDbEntity
  8
PEGA_345
 62
     7
100
AcDbVertex
100
AcDb2dVertex
 10
-17.376114
 20
-43.902574
 30
0.0
  0
VERTEX
  5
15D
100
AcDbEntity
  8
PEGA_345
 62
     7
100
AcDbVertex
100
AcDb2dVertex
 10
-15.689395
 20
-43.386844
 30
0.0
  0
SEQEND
  5
15E
100
AcDbEntity
  8
PEGA_345
 62
     7
  0
HATCH
  5
159
100
AcDbEntity
  8
PEGA_345
 62
     7
100
AcDbHatch
 10
0.0
 20
0.0
 30
0.0
210
0.0
220
0.0
230
1.0
  2
SOLID
 70
     1
 71
     0
 91
        1
 92
        3
 72
     0
 73
     1
 93
        3
 10
-15.68939548068576
 20
-44.41830512152777
 10
-17.37611423068576
 20
-43.90257432725694
 10
-15.68939548068576
 20
-43.3868435329861
 97
        0
 75
     0
 76
     1
 98
        1
 10
0.0
 20
0.0
  0
POLYLINE
  5
154
100
AcDbEntity
  8
PEGA_345
 62
     7
100
AcDb2dPolyline
 66
     1
 10
0.0
 20
0.0
 30
0.0
 70
     1
  0
VERTEX
  5
155
100
AcDbEntity
  8
PEGA_345
 62
     7
100
AcDbVertex
100
AcDb2dVertex
 10
15.689395
 20
-43.386844
 30
0.0
  0
VERTEX
  5
156
100
AcDbEntity
  8
PEGA_345
 62
     7
100
AcDbVertex
100
AcDb2dVertex
 10
17.376114
 20
-43.902574
 30
0.0
  0
VERTEX
  5
157
100
AcDbEntity
  8
PEGA_345
 62
     7
100
AcDbVertex
100
AcDb2dVertex
 10
15.689395
 20
-44.418305
 30
0.0
  0
SEQEND
  5
158
100
AcDbEntity
  8
PEGA_345
 62
     7
  0
HATCH
  5
153
100
AcDbEntity
  8
PEGA_345
 62
     7
100
AcDbHatch
 10
0.0
 20
0.0
 30
0.0
210
0.0
220
0.0
230
1.0
  2
SOLID
 70
     1
 71
     0
 91
        1
 92
        3
 72
     0
 73
     1
 93
        3
 10
15.68939548068576
 20
-43.3868435329861
 10
17.37611423068576
 20
-43.90257432725694
 10
15.68939548068576
 20
-44.41830512152777
 97
        0
 75
     0
 76
     1
 98
        1
 10
0.0
 20
0.0
  0
ENDBLK
  5
162
100
AcDbEntity
  8
PEGA_345
100
AcDbBlockEnd
  0
BLOCK
  5
165
100
AcDbEntity
  8
PEGA_345
 62
     7
100
AcDbBlockBegin
  2
AI9-BLK15
 70
     0
 10
0.0
 20
0.0
 30
0.0
  3
AI9-BLK15
  1

  0
MTEXT
  5
174
100
AcDbEntity
  8
PEGA_345
 62
     7
100
AcDbMText
 10
-4.03214
 20
-70.472361
 30
0.0
 40
2.099868
 41
0.0
 71
     1
 72
     2
  1
\fArial|b0|i0;55.12"
  7
STD
 11
1.000001
 21
0.0
 31
0.0
  0
LINE
  5
173
100
AcDbEntity
  8
PEGA_345
 62
     7
100
AcDbLine
 10
-17.500052
 20
75.394451
 30
0.0
 11
-17.500052
 21
-75.394451
 31
0.0
  0
LINE
  5
172
100
AcDbEntity
  8
PEGA_345
 62
     7
100
AcDbLine
 10
-17.500052
 20
-73.630562
 30
0.0
 11
17.500052
 21
-73.630562
 31
0.0
  0
POLYLINE
  5
16D
100
AcDbEntity
  8
PEGA_345
 62
     7
100
AcDb2dPolyline
 66
     1
 10
0.0
 20
0.0
 30
0.0
 70
     1
  0
VERTEX
  5
16E
100
AcDbEntity
  8
PEGA_345
 62
     7
100
AcDbVertex
100
AcDb2dVertex
 10
-15.813333
 20
-74.146292
 30
0.0
  0
VERTEX
  5
16F
100
AcDbEntity
  8
PEGA_345
 62
     7
100
AcDbVertex
100
AcDb2dVertex
 10
-17.500052
 20
-73.630562
 30
0.0
  0
VERTEX
  5
170
100
AcDbEntity
  8
PEGA_345
 62
     7
100
AcDbVertex
100
AcDb2dVertex
 10
-15.813333
 20
-73.114831
 30
0.0
  0
SEQEND
  5
171
100
AcDbEntity
  8
PEGA_345
 62
     7
  0
HATCH
  5
16C
100
AcDbEntity
  8
PEGA_345
 62
     7
100
AcDbHatch
 10
0.0
 20
0.0
 30
0.0
210
0.0
220
0.0
230
1.0
  2
SOLID
 70
     1
 71
     0
 91
        1
 92
        3
 72
     0
 73
     1
 93
        3
 10
-15.81333279079861
 20
-74.14629245334201
 10
-17.5000515407986
 20
-73.63056165907117
 10
-15.81333279079861
 20
-73.11483086480034
 97
        0
 75
     0
 76
     1
 98
        1
 10
0.0
 20
0.0
  0
POLYLINE
  5
167
100
AcDbEntity
  8
PEGA_345
 62
     7
100
AcDb2dPolyline
 66
     1
 10
0.0
 20
0.0
 30
0.0
 70
     1
  0
VERTEX
  5
168
100
AcDbEntity
  8
PEGA_345
 62
     7
100
AcDbVertex
100
AcDb2dVertex
 10
15.813333
 20
-73.114831
 30
0.0
  0
VERTEX
  5
169
100
AcDbEntity
  8
PEGA_345
 62
     7
100
AcDbVertex
100
AcDb2dVertex
 10
17.500052
 20
-73.630562
 30
0.0
  0
VERTEX
  5
16A
100
AcDbEntity
  8
PEGA_345
 62
     7
100
AcDbVertex
100
AcDb2dVertex
 10
15.813333
 20
-74.146292
 30
0.0
  0
SEQEND
  5
16B
100
AcDbEntity
  8
PEGA_345
 62
     7
  0
HATCH
  5
166
100
AcDbEntity
  8
PEGA_345
 62
     7
100
AcDbHatch
 10
0.0
 20
0.0
 30
0.0
210
0.0
220
0.0
230
1.0
  2
SOLID
 70
     1
 71
     0
 91
        1
 92
        3
 72
     0
 73
     1
 93
        3
 10
15.81333279079861
 20
-73.11483086480034
 10
17.5000515407986
 20
-73.63056165907117
 10
15.81333279079861
 20
-74.14629245334201
 97
        0
 75
     0
 76
     1
 98
        1
 10
0.0
 20
0.0
  0
ENDBLK
  5
175
100
AcDbEntity
  8
PEGA_345
100
AcDbBlockEnd
  0
BLOCK
  5
178
100
AcDbEntity
  8
PEGA_345
 62
     7
100
AcDbBlockBegin
  2
AI9-BLK16
 70
     0
 10
0.0
 20
0.0
 30
0.0
  3
AI9-BLK16
  1

  0
MTEXT
  5
187
100
AcDbEntity
  8
PEGA_345
 62
     7
100
AcDbMText
 10
-13.828695
 20
-12.241113
 30
0.0
 40
2.099868
 41
0.0
 71
     1
 72
     2
  1
\fArial|b0|i0;39.37" Work Range
  7
STD
 11
0.0
 21
1.0
 31
0.0
  0
LINE
  5
186
100
AcDbEntity
  8
PEGA_345
 62
     7
100
AcDbLine
 10
14.258906
 20
12.604915
 30
0.0
 11
-12.434383
 21
12.604915
 31
0.0
  0
LINE
  5
185
100
AcDbEntity
  8
PEGA_345
 62
     7
100
AcDbLine
 10
-10.670494
 20
12.604915
 30
0.0
 11
-10.670494
 21
-12.604915
 31
0.0
  0
POLYLINE
  5
180
100
AcDbEntity
  8
PEGA_345
 62
     7
100
AcDb2dPolyline
 66
     1
 10
0.0
 20
0.0
 30
0.0
 70
     1
  0
VERTEX
  5
181
100
AcDbEntity
  8
PEGA_345
 62
     7
100
AcDbVertex
100
AcDb2dVertex
 10
-11.18657
 20
10.918024
 30
0.0
  0
VERTEX
  5
182
100
AcDbEntity
  8
PEGA_345
 62
     7
100
AcDbVertex
100
AcDb2dVertex
 10
-10.670494
 20
12.604915
 30
0.0
  0
VERTEX
  5
183
100
AcDbEntity
  8
PEGA_345
 62
     7
100
AcDbVertex
100
AcDb2dVertex
 10
-10.155108
 20
10.918024
 30
0.0
  0
SEQEND
  5
184
100
AcDbEntity
  8
PEGA_345
 62
     7
  0
HATCH
  5
17F
100
AcDbEntity
  8
PEGA_345
 62
     7
100
AcDbHatch
 10
0.0
 20
0.0
 30
0.0
210
0.0
220
0.0
230
1.0
  2
SOLID
 70
     1
 71
     0
 91
        1
 92
        3
 72
     0
 73
     1
 93
        3
 10
-11.18656955295138
 20
10.91802435980902
 10
-10.67049424913194
 20
12.60491536458333
 10
-10.15510796440972
 20
10.91802435980902
 97
        0
 75
     0
 76
     1
 98
        1
 10
0.0
 20
0.0
  0
POLYLINE
  5
17A
100
AcDbEntity
  8
PEGA_345
 62
     7
100
AcDb2dPolyline
 66
     1
 10
0.0
 20
0.0
 30
0.0
 70
     1
  0
VERTEX
  5
17B
100
AcDbEntity
  8
PEGA_345
 62
     7
100
AcDbVertex
100
AcDb2dVertex
 10
-10.155108
 20
-10.918197
 30
0.0
  0
VERTEX
  5
17C
100
AcDbEntity
  8
PEGA_345
 62
     7
100
AcDbVertex
100
AcDb2dVertex
 10
-10.670494
 20
-12.604915
 30
0.0
  0
VERTEX
  5
17D
100
AcDbEntity
  8
PEGA_345
 62
     7
100
AcDbVertex
100
AcDb2dVertex
 10
-11.18657
 20
-10.918197
 30
0.0
  0
SEQEND
  5
17E
100
AcDbEntity
  8
PEGA_345
 62
     7
  0
HATCH
  5
179
100
AcDbEntity
  8
PEGA_345
 62
     7
100
AcDbHatch
 10
0.0
 20
0.0
 30
0.0
210
0.0
220
0.0
230
1.0
  2
SOLID
 70
     1
 71
     0
 91
        1
 92
        3
 72
     0
 73
     1
 93
        3
 10
-10.15510796440972
 20
-10.91819661458333
 10
-10.67049424913194
 20
-12.60491536458333
 10
-11.18656955295138
 20
-10.91819661458333
 97
        0
 75
     0
 76
     1
 98
        1
 10
0.0
 20
0.0
  0
ENDBLK
  5
188
100
AcDbEntity
  8
PEGA_345
100
AcDbBlockEnd
  0
BLOCK
  5
18C
100
AcDbEntity
  8
PEGA_345
 62
     7
100
AcDbBlockBegin
  2
AI9-BLK17
 70
     0
 10
0.0
 20
0.0
 30
0.0
  3
AI9-BLK17
  1

  0
MTEXT
  5
19D
100
AcDbEntity
  8
PEGA_345
 62
     7
100
AcDbMText
 10
-8.924175
 20
1.041448
 30
0.0
 40
2.099868
 41
0.0
 71
     1
 72
     2
  1
\fArial|b0|i0;19.10"
  7
STD
 11
1.000001
 21
0.0
 31
0.0
  0
LINE
  5
19C
100
AcDbEntity
  8
PEGA_345
 62
     7
100
AcDbLine
 10
8.924175
 20
6.06466
 30
0.0
 11
-6.655924
 21
6.06466
 31
0.0
  0
LINE
  5
19B
100
AcDbEntity
  8
PEGA_345
 62
     7
100
AcDbLine
 10
6.739985
 20
-6.06466
 30
0.0
 11
-6.655924
 21
-6.06466
 31
0.0
  0
LINE
  5
19A
100
AcDbEntity
  8
PEGA_345
 62
     7
100
AcDbLine
 10
-4.892036
 20
6.06466
 30
0.0
 11
-4.892036
 21
1.763803
 31
0.0
  0
LINE
  5
199
100
AcDbEntity
  8
PEGA_345
 62
     7
100
AcDbLine
 10
-4.892036
 20
-1.763975
 30
0.0
 11
-4.892036
 21
-6.06466
 31
0.0
  0
POLYLINE
  5
194
100
AcDbEntity
  8
PEGA_345
 62
     7
100
AcDb2dPolyline
 66
     1
 10
0.0
 20
0.0
 30
0.0
 70
     1
  0
VERTEX
  5
195
100
AcDbEntity
  8
PEGA_345
 62
     7
100
AcDbVertex
100
AcDb2dVertex
 10
-5.407766
 20
4.377769
 30
0.0
  0
VERTEX
  5
196
100
AcDbEntity
  8
PEGA_345
 62
     7
100
AcDbVertex
100
AcDb2dVertex
 10
-4.892036
 20
6.06466
 30
0.0
  0
VERTEX
  5
197
100
AcDbEntity
  8
PEGA_345
 62
     7
100
AcDbVertex
100
AcDb2dVertex
 10
-4.376305
 20
4.377769
 30
0.0
  0
SEQEND
  5
198
100
AcDbEntity
  8
PEGA_345
 62
     7
  0
HATCH
  5
193
100
AcDbEntity
  8
PEGA_345
 62
     7
100
AcDbHatch
 10
0.0
 20
0.0
 30
0.0
210
0.0
220
0.0
230
1.0
  2
SOLID
 70
     1
 71
     0
 91
        1
 92
        3
 72
     0
 73
     1
 93
        3
 10
-5.40776638454861
 20
4.37776896158854
 10
-4.892035590277777
 20
6.064659966362846
 10
-4.376304796006944
 20
4.37776896158854
 97
        0
 75
     0
 76
     1
 98
        1
 10
0.0
 20
0.0
  0
POLYLINE
  5
18E
100
AcDbEntity
  8
PEGA_345
 62
     7
100
AcDb2dPolyline
 66
     1
 10
0.0
 20
0.0
 30
0.0
 70
     1
  0
VERTEX
  5
18F
100
AcDbEntity
  8
PEGA_345
 62
     7
100
AcDbVertex
100
AcDb2dVertex
 10
-4.376305
 20
-4.377769
 30
0.0
  0
VERTEX
  5
190
100
AcDbEntity
  8
PEGA_345
 62
     7
100
AcDbVertex
100
AcDb2dVertex
 10
-4.892036
 20
-6.06466
 30
0.0
  0
VERTEX
  5
191
100
AcDbEntity
  8
PEGA_345
 62
     7
100
AcDbVertex
100
AcDb2dVertex
 10
-5.407766
 20
-4.377769
 30
0.0
  0
SEQEND
  5
192
100
AcDbEntity
  8
PEGA_345
 62
     7
  0
HATCH
  5
18D
100
AcDbEntity
  8
PEGA_345
 62
     7
100
AcDbHatch
 10
0.0
 20
0.0
 30
0.0
210
0.0
220
0.0
230
1.0
  2
SOLID
 70
     1
 71
     0
 91
        1
 92
        3
 72
     0
 73
     1
 93
        3
 10
-4.376304796006944
 20
-4.37776896158854
 10
-4.892035590277777
 20
-6.064659966362846
 10
-5.40776638454861
 20
-4.37776896158854
 97
        0
 75
     0
 76
     1
 98
        1
 10
0.0
 20
0.0
  0
ENDBLK
  5
19E
100
AcDbEntity
  8
PEGA_345
100
AcDbBlockEnd
  0
BLOCK
  5
1A1
100
AcDbEntity
  8
PEGA_345
 62
     7
100
AcDbBlockBegin
  2
AI9-BLK18
 70
     0
 10
0.0
 20
0.0
 30
0.0
  3
AI9-BLK18
  1

  0
MTEXT
  5
1B0
100
AcDbEntity
  8
PEGA_345
 62
     7
100
AcDbMText
 10
-11.559673
 20
1.131796
 30
0.0
 40
2.099868
 41
0.0
 71
     1
 72
     2
  1
\fArial|b0|i0;11.56"
  7
STD
 11
1.000001
 21
0.0
 31
0.0
  0
LINE
  5
1AF
100
AcDbEntity
  8
PEGA_345
 62
     7
100
AcDbLine
 10
-2.835314
 20
-0.262516
 30
0.0
 11
0.692464
 21
-0.262516
 31
0.0
  0
LINE
  5
1AE
100
AcDbEntity
  8
PEGA_345
 62
     7
100
AcDbLine
 10
8.031896
 20
-0.262516
 30
0.0
 11
11.559673
 21
-0.262516
 31
0.0
  0
POLYLINE
  5
1A9
100
AcDbEntity
  8
PEGA_345
 62
     7
100
AcDb2dPolyline
 66
     1
 10
0.0
 20
0.0
 30
0.0
 70
     1
  0
VERTEX
  5
1AA
100
AcDbEntity
  8
PEGA_345
 62
     7
100
AcDbVertex
100
AcDb2dVertex
 10
-0.994255
 20
0.253215
 30
0.0
  0
VERTEX
  5
1AB
100
AcDbEntity
  8
PEGA_345
 62
     7
100
AcDbVertex
100
AcDb2dVertex
 10
0.692464
 20
-0.262516
 30
0.0
  0
VERTEX
  5
1AC
100
AcDbEntity
  8
PEGA_345
 62
     7
100
AcDbVertex
100
AcDb2dVertex
 10
-0.994255
 20
-0.778247
 30
0.0
  0
SEQEND
  5
1AD
100
AcDbEntity
  8
PEGA_345
 62
     7
  0
HATCH
  5
1A8
100
AcDbEntity
  8
PEGA_345
 62
     7
100
AcDbHatch
 10
0.0
 20
0.0
 30
0.0
210
0.0
220
0.0
230
1.0
  2
SOLID
 70
     1
 71
     0
 91
        1
 92
        3
 72
     0
 73
     1
 93
        3
 10
-0.9942545572916666
 20
0.2532145182291666
 10
0.6924641927083333
 20
-0.2625162760416666
 10
-0.9942545572916666
 20
-0.7782470703125
 97
        0
 75
     0
 76
     1
 98
        1
 10
0.0
 20
0.0
  0
POLYLINE
  5
1A3
100
AcDbEntity
  8
PEGA_345
 62
     7
100
AcDb2dPolyline
 66
     1
 10
0.0
 20
0.0
 30
0.0
 70
     1
  0
VERTEX
  5
1A4
100
AcDbEntity
  8
PEGA_345
 62
     7
100
AcDbVertex
100
AcDb2dVertex
 10
9.718614
 20
-0.778247
 30
0.0
  0
VERTEX
  5
1A5
100
AcDbEntity
  8
PEGA_345
 62
     7
100
AcDbVertex
100
AcDb2dVertex
 10
8.031896
 20
-0.262516
 30
0.0
  0
VERTEX
  5
1A6
100
AcDbEntity
  8
PEGA_345
 62
     7
100
AcDbVertex
100
AcDb2dVertex
 10
9.718614
 20
0.253215
 30
0.0
  0
SEQEND
  5
1A7
100
AcDbEntity
  8
PEGA_345
 62
     7
  0
HATCH
  5
1A2
100
AcDbEntity
  8
PEGA_345
 62
     7
100
AcDbHatch
 10
0.0
 20
0.0
 30
0.0
210
0.0
220
0.0
230
1.0
  2
SOLID
 70
     1
 71
     0
 91
        1
 92
        3
 72
     0
 73
     1
 93
        3
 10
9.718614366319442
 20
-0.7782470703125
 10
8.031895616319443
 20
-0.2625162760416666
 10
9.718614366319442
 20
0.2532145182291666
 97
        0
 75
     0
 76
     1
 98
        1
 10
0.0
 20
0.0
  0
ENDBLK
  5
1B1
100
AcDbEntity
  8
PEGA_345
100
AcDbBlockEnd
  0
BLOCK
  5
1B4
100
AcDbEntity
  8
PEGA_345
 62
     7
100
AcDbBlockBegin
  2
AI9-BLK19
 70
     0
 10
0.0
 20
0.0
 30
0.0
  3
AI9-BLK19
  1

  0
MTEXT
  5
1C5
100
AcDbEntity
  8
PEGA_345
 62
     7
100
AcDbMText
 10
-4.032226
 20
1.131796
 30
0.0
 40
2.099868
 41
0.0
 71
     1
 72
     2
  1
\fArial|b0|i0;27.56"
  7
STD
 11
1.000001
 21
0.0
 31
0.0
  0
LINE
  5
1C4
100
AcDbEntity
  8
PEGA_345
 62
     7
100
AcDbLine
 10
-8.74994
 20
-0.828201
 30
0.0
 11
-8.74994
 21
1.148595
 31
0.0
  0
LINE
  5
1C3
100
AcDbEntity
  8
PEGA_345
 62
     7
100
AcDbLine
 10
8.74994
 20
-0.828201
 30
0.0
 11
8.74994
 21
1.148595
 31
0.0
  0
LINE
  5
1C2
100
AcDbEntity
  8
PEGA_345
 62
     7
100
AcDbLine
 10
-12.277717
 20
-0.615294
 30
0.0
 11
-8.74994
 21
-0.615294
 31
0.0
  0
LINE
  5
1C1
100
AcDbEntity
  8
PEGA_345
 62
     7
100
AcDbLine
 10
8.74994
 20
-0.615294
 30
0.0
 11
12.277717
 21
-0.615294
 31
0.0
  0
POLYLINE
  5
1BC
100
AcDbEntity
  8
PEGA_345
 62
     7
100
AcDb2dPolyline
 66
     1
 10
0.0
 20
0.0
 30
0.0
 70
     1
  0
VERTEX
  5
1BD
100
AcDbEntity
  8
PEGA_345
 62
     7
100
AcDbVertex
100
AcDb2dVertex
 10
-10.436658
 20
-0.099563
 30
0.0
  0
VERTEX
  5
1BE
100
AcDbEntity
  8
PEGA_345
 62
     7
100
AcDbVertex
100
AcDb2dVertex
 10
-8.74994
 20
-0.615294
 30
0.0
  0
VERTEX
  5
1BF
100
AcDbEntity
  8
PEGA_345
 62
     7
100
AcDbVertex
100
AcDb2dVertex
 10
-10.436658
 20
-1.131025
 30
0.0
  0
SEQEND
  5
1C0
100
AcDbEntity
  8
PEGA_345
 62
     7
  0
HATCH
  5
1BB
100
AcDbEntity
  8
PEGA_345
 62
     7
100
AcDbHatch
 10
0.0
 20
0.0
 30
0.0
210
0.0
220
0.0
230
1.0
  2
SOLID
 70
     1
 71
     0
 91
        1
 92
        3
 72
     0
 73
     1
 93
        3
 10
-10.43665839301215
 20
-0.0995632595486111
 10
-8.749939643012151
 20
-0.6152940538194444
 10
-10.43665839301215
 20
-1.131024848090277
 97
        0
 75
     0
 76
     1
 98
        1
 10
0.0
 20
0.0
  0
POLYLINE
  5
1B6
100
AcDbEntity
  8
PEGA_345
 62
     7
100
AcDb2dPolyline
 66
     1
 10
0.0
 20
0.0
 30
0.0
 70
     1
  0
VERTEX
  5
1B7
100
AcDbEntity
  8
PEGA_345
 62
     7
100
AcDbVertex
100
AcDb2dVertex
 10
10.436658
 20
-1.131025
 30
0.0
  0
VERTEX
  5
1B8
100
AcDbEntity
  8
PEGA_345
 62
     7
100
AcDbVertex
100
AcDb2dVertex
 10
8.74994
 20
-0.615294
 30
0.0
  0
VERTEX
  5
1B9
100
AcDbEntity
  8
PEGA_345
 62
     7
100
AcDbVertex
100
AcDb2dVertex
 10
10.436658
 20
-0.099563
 30
0.0
  0
SEQEND
  5
1BA
100
AcDbEntity
  8
PEGA_345
 62
     7
  0
HATCH
  5
1B5
100
AcDbEntity
  8
PEGA_345
 62
     7
100
AcDbHatch
 10
0.0
 20
0.0
 30
0.0
210
0.0
220
0.0
230
1.0
  2
SOLID
 70
     1
 71
     0
 91
        1
 92
        3
 72
     0
 73
     1
 93
        3
 10
10.43665839301215
 20
-1.131024848090277
 10
8.749939643012151
 20
-0.6152940538194444
 10
10.43665839301215
 20
-0.0995632595486111
 97
        0
 75
     0
 76
     1
 98
        1
 10
0.0
 20
0.0
  0
ENDBLK
  5
1C6
100
AcDbEntity
  8
PEGA_345
100
AcDbBlockEnd
  0
BLOCK
  5
1C9
100
AcDbEntity
  8
PEGA_345
 62
     7
100
AcDbBlockBegin
  2
AI9-BLK20
 70
     0
 10
0.0
 20
0.0
 30
0.0
  3
AI9-BLK20
  1

  0
MTEXT
  5
1D8
100
AcDbEntity
  8
PEGA_345
 62
     7
100
AcDbMText
 10
-1.665958
 20
-4.03214
 30
0.0
 40
2.099868
 41
0.0
 71
     1
 72
     2
  1
\fArial|b0|i0;49.21"
  7
STD
 11
0.0
 21
1.0
 31
0.0
  0
LINE
  5
1D7
100
AcDbEntity
  8
PEGA_345
 62
     7
100
AcDbLine
 10
2.044492
 20
15.624886
 30
0.0
 11
-0.271646
 21
15.624886
 31
0.0
  0
LINE
  5
1D6
100
AcDbEntity
  8
PEGA_345
 62
     7
100
AcDbLine
 10
1.492243
 20
15.624886
 30
0.0
 11
1.492243
 21
-15.624886
 31
0.0
  0
POLYLINE
  5
1D1
100
AcDbEntity
  8
PEGA_345
 62
     7
100
AcDb2dPolyline
 66
     1
 10
0.0
 20
0.0
 30
0.0
 70
     1
  0
VERTEX
  5
1D2
100
AcDbEntity
  8
PEGA_345
 62
     7
100
AcDbVertex
100
AcDb2dVertex
 10
0.976512
 20
13.937995
 30
0.0
  0
VERTEX
  5
1D3
100
AcDbEntity
  8
PEGA_345
 62
     7
100
AcDbVertex
100
AcDb2dVertex
 10
1.492243
 20
15.624886
 30
0.0
  0
VERTEX
  5
1D4
100
AcDbEntity
  8
PEGA_345
 62
     7
100
AcDbVertex
100
AcDb2dVertex
 10
2.007974
 20
13.937995
 30
0.0
  0
SEQEND
  5
1D5
100
AcDbEntity
  8
PEGA_345
 62
     7
  0
HATCH
  5
1D0
100
AcDbEntity
  8
PEGA_345
 62
     7
100
AcDbHatch
 10
0.0
 20
0.0
 30
0.0
210
0.0
220
0.0
230
1.0
  2
SOLID
 70
     1
 71
     0
 91
        1
 92
        3
 72
     0
 73
     1
 93
        3
 10
0.9765123155381944
 20
13.93799506293402
 10
1.492243109809027
 20
15.62488606770833
 10
2.00797390407986
 20
13.93799506293402
 97
        0
 75
     0
 76
     1
 98
        1
 10
0.0
 20
0.0
  0
POLYLINE
  5
1CB
100
AcDbEntity
  8
PEGA_345
 62
     7
100
AcDb2dPolyline
 66
     1
 10
0.0
 20
0.0
 30
0.0
 70
     1
  0
VERTEX
  5
1CC
100
AcDbEntity
  8
PEGA_345
 62
     7
100
AcDbVertex
100
AcDb2dVertex
 10
2.007974
 20
-13.937995
 30
0.0
  0
VERTEX
  5
1CD
100
AcDbEntity
  8
PEGA_345
 62
     7
100
AcDbVertex
100
AcDb2dVertex
 10
1.492243
 20
-15.624886
 30
0.0
  0
VERTEX
  5
1CE
100
AcDbEntity
  8
PEGA_345
 62
     7
100
AcDbVertex
100
AcDb2dVertex
 10
0.976512
 20
-13.937995
 30
0.0
  0
SEQEND
  5
1CF
100
AcDbEntity
  8
PEGA_345
 62
     7
  0
HATCH
  5
1CA
100
AcDbEntity
  8
PEGA_345
 62
     7
100
AcDbHatch
 10
0.0
 20
0.0
 30
0.0
210
0.0
220
0.0
230
1.0
  2
SOLID
 70
     1
 71
     0
 91
        1
 92
        3
 72
     0
 73
     1
 93
        3
 10
2.00797390407986
 20
-13.93799506293402
 10
1.492243109809027
 20
-15.62488606770833
 10
0.9765123155381944
 20
-13.93799506293402
 97
        0
 75
     0
 76
     1
 98
        1
 10
0.0
 20
0.0
  0
ENDBLK
  5
1D9
100
AcDbEntity
  8
PEGA_345
100
AcDbBlockEnd
  0
BLOCK
  5
1DC
100
AcDbEntity
  8
PEGA_345
 62
     7
100
AcDbBlockBegin
  2
AI9-BLK21
 70
     0
 10
0.0
 20
0.0
 30
0.0
  3
AI9-BLK21
  1

  0
LINE
  5
1ED
100
AcDbEntity
  8
PEGA_345
 62
     7
100
AcDbLine
 10
-15.41775
 20
-11.308698
 30
0.0
 11
-2.766842
 21
-18.919259
 31
0.0
  0
LINE
  5
1EC
100
AcDbEntity
  8
PEGA_345
 62
     7
100
AcDbLine
 10
2.767359
 20
18.919259
 30
0.0
 11
15.41775
 21
11.308698
 31
0.0
  0
MTEXT
  5
1EB
100
AcDbEntity
  8
PEGA_345
 62
     7
100
AcDbMText
 10
0.557672
 20
-10.345761
 30
0.0
 40
2.099868
 41
0.0
 71
     1
 72
     2
  1
\fArial|b0|i0;56" Maximum
  7
STD
 11
0.5155
 21
0.8569
 31
0.0
  0
MTEXT
  5
1EA
100
AcDbEntity
  8
PEGA_345
 62
     7
100
AcDbMText
 10
-2.111933
 20
-8.282149
 30
0.0
 40
2.099868
 41
0.0
 71
     1
 72
     2
  1
\fArial|b0|i0;45" Minimum
  7
STD
 11
0.5155
 21
0.8569
 31
0.0
  0
LINE
  5
1E9
100
AcDbEntity
  8
PEGA_345
 62
     7
100
AcDbLine
 10
-4.278722
 20
-18.009926
 30
0.0
 11
13.906042
 21
12.218031
 31
0.0
  0
POLYLINE
  5
1E4
100
AcDbEntity
  8
PEGA_345
 62
     7
100
AcDb2dPolyline
 66
     1
 10
0.0
 20
0.0
 30
0.0
 70
     1
  0
VERTEX
  5
1E5
100
AcDbEntity
  8
PEGA_345
 62
     7
100
AcDbVertex
100
AcDb2dVertex
 10
-2.967347
 20
-16.830325
 30
0.0
  0
VERTEX
  5
1E6
100
AcDbEntity
  8
PEGA_345
 62
     7
100
AcDbVertex
100
AcDb2dVertex
 10
-4.278722
 20
-18.009926
 30
0.0
  0
VERTEX
  5
1E7
100
AcDbEntity
  8
PEGA_345
 62
     7
100
AcDbVertex
100
AcDb2dVertex
 10
-3.850842
 20
-16.298574
 30
0.0
  0
SEQEND
  5
1E8
100
AcDbEntity
  8
PEGA_345
 62
     7
  0
HATCH
  5
1E3
100
AcDbEntity
  8
PEGA_345
 62
     7
100
AcDbHatch
 10
0.0
 20
0.0
 30
0.0
210
0.0
220
0.0
230
1.0
  2
SOLID
 70
     1
 71
     0
 91
        1
 92
        3
 72
     0
 73
     1
 93
        3
 10
-2.967346869574652
 20
-16.8303249782986
 10
-4.278722466362847
 20
-18.00992567274305
 10
-3.850841606987847
 20
-16.29857449001735
 97
        0
 75
     0
 76
     1
 98
        1
 10
0.0
 20
0.0
  0
POLYLINE
  5
1DE
100
AcDbEntity
  8
PEGA_345
 62
     7
100
AcDb2dPolyline
 66
     1
 10
0.0
 20
0.0
 30
0.0
 70
     1
  0
VERTEX
  5
1DF
100
AcDbEntity
  8
PEGA_345
 62
     7
100
AcDbVertex
100
AcDb2dVertex
 10
12.594838
 20
11.03843
 30
0.0
  0
VERTEX
  5
1E0
100
AcDbEntity
  8
PEGA_345
 62
     7
100
AcDbVertex
100
AcDb2dVertex
 10
13.906042
 20
12.218031
 30
0.0
  0
VERTEX
  5
1E1
100
AcDbEntity
  8
PEGA_345
 62
     7
100
AcDbVertex
100
AcDb2dVertex
 10
13.47885
 20
10.506852
 30
0.0
  0
SEQEND
  5
1E2
100
AcDbEntity
  8
PEGA_345
 62
     7
  0
HATCH
  5
1DD
100
AcDbEntity
  8
PEGA_345
 62
     7
100
AcDbHatch
 10
0.0
 20
0.0
 30
0.0
210
0.0
220
0.0
230
1.0
  2
SOLID
 70
     1
 71
     0
 91
        1
 92
        3
 72
     0
 73
     1
 93
        3
 10
12.59483846028645
 20
11.03843044704861
 10
13.90604180230034
 20
12.21803114149305
 10
13.47884996202256
 20
10.50685221354166
 97
        0
 75
     0
 76
     1
 98
        1
 10
0.0
 20
0.0
  0
ENDBLK
  5
1EE
100
AcDbEntity
  8
PEGA_345
100
AcDbBlockEnd
  0
BLOCK
  5
1F3
100
AcDbEntity
  8
PEGA_345
  6
AI9-LTYPE2
 62
     7
100
AcDbBlockBegin
  2
AI9-BLK22
 70
     0
 10
0.0
 20
0.0
 30
0.0
  3
AI9-BLK22
  1

  0
INSERT
  5
1F6
100
AcDbEntity
  8
PEGA_345
  6
AI9-LTYPE2
 62
     7
100
AcDbBlockReference
  2
AI9-BLK23
 10
0.0
 20
0.0
 30
0.0
  0
MTEXT
  5
1F4
100
AcDbEntity
  8
PEGA_345
  6
AI9-LTYPE2
 62
     7
100
AcDbMText
 10
-6.728267
 20
6.151218
 30
0.0
 40
2.099868
 41
0.0
 71
     1
 72
     2
  1
\fArial|b0|i0;04PC Control
  7
STD
 11
0.0
 21
1.0
 31
0.0
  0
ENDBLK
  5
228
100
AcDbEntity
  8
PEGA_345
100
AcDbBlockEnd
  0
BLOCK
  5
1F7
100
AcDbEntity
  8
PEGA_345
  6
AI9-LTYPE2
 62
     7
100
AcDbBlockBegin
  2
AI9-BLK23
 70
     0
 10
0.0
 20
0.0
 30
0.0
  3
AI9-BLK23
  1

  0
INSERT
  5
21E
100
AcDbEntity
  8
PEGA_345
 62
     7
100
AcDbBlockReference
  2
AI9-BLK30
 10
-0.000172
 20
8.750198
 30
0.0
  0
INSERT
  5
20E
100
AcDbEntity
  8
PEGA_345
 62
     7
100
AcDbBlockReference
  2
AI9-BLK28
 10
6.250006
 20
-0.624596
 30
0.0
  0
INSERT
  5
209
100
AcDbEntity
  8
PEGA_345
 62
     7
100
AcDbBlockReference
  2
AI9-BLK27
 10
-0.000172
 20
-15.668639
 30
0.0
  0
INSERT
  5
204
100
AcDbEntity
  8
PEGA_345
 62
     7
100
AcDbBlockReference
  2
AI9-BLK26
 10
-13.000326
 20
-2.520776
 30
0.0
  0
INSERT
  5
1FF
100
AcDbEntity
  8
PEGA_345
 62
     7
100
AcDbBlockReference
  2
AI9-BLK25
 10
-20.065097
 20
13.103765
 30
0.0
  0
INSERT
  5
1F9
100
AcDbEntity
  8
PEGA_345
  6
AI9-LTYPE2
 62
     7
100
AcDbBlockReference
  2
AI9-BLK24
 10
20.065011
 20
13.103765
 30
0.0
  0
ENDBLK
  5
227
100
AcDbEntity
  8
PEGA_345
100
AcDbBlockEnd
  0
BLOCK
  5
1FA
100
AcDbEntity
  8
PEGA_345
  6
AI9-LTYPE2
 62
     7
100
AcDbBlockBegin
  2
AI9-BLK24
 70
     0
 10
0.0
 20
0.0
 30
0.0
  3
AI9-BLK24
  1

  0
SPLINE
  5
1FC
100
AcDbEntity
  8
PEGA_345
  6
AI9-LTYPE3
 62
     7
100
AcDbSpline
210
0.0
220
0.0
230
-1.0
 70
     8
 71
     3
 72
    11
 73
     7
 74
     0
 42
0.0000001
 43
0.0000001
 40
0.0
 40
0.0
 40
0.0
 40
0.0
 40
1.0
 40
1.0
 40
1.0
 40
2.0
 40
2.0
 40
2.0
 40
2.0
 10
-11.31524386935763
 20
11.27131890190972
 30
0.0
 10
1.134642198350694
 20
11.27131890190972
 30
0.0
 10
11.2273939344618
 20
1.177878146701388
 30
0.0
 10
11.2273939344618
 20
-11.27131890190972
 30
0.0
 10
11.2273939344618
 20
-11.27131890190972
 30
0.0
 10
-11.31524386935763
 20
-11.27131890190972
 30
0.0
 10
-11.31524386935763
 20
-11.27131890190972
 30
0.0
  0
ENDBLK
  5
1FD
100
AcDbEntity
  8
PEGA_345
100
AcDbBlockEnd
  0
BLOCK
  5
200
100
AcDbEntity
  8
PEGA_345
 62
     7
100
AcDbBlockBegin
  2
AI9-BLK25
 70
     0
 10
0.0
 20
0.0
 30
0.0
  3
AI9-BLK25
  1

  0
SPLINE
  5
201
100
AcDbEntity
  8
PEGA_345
  6
AI9-LTYPE3
 62
     7
100
AcDbSpline
210
0.0
220
0.0
230
1.0
 70
     8
 71
     3
 72
    11
 73
     7
 74
     0
 42
0.0000001
 43
0.0000001
 40
0.0
 40
0.0
 40
0.0
 40
0.0
 40
1.0
 40
1.0
 40
1.0
 40
2.0
 40
2.0
 40
2.0
 40
2.0
 10
11.31498548719618
 20
-11.27131890190972
 30
0.0
 10
-1.134900580512152
 20
-11.27131890190972
 30
0.0
 10
-11.22730780707465
 20
-1.17856716579861
 30
0.0
 10
-11.22730780707465
 20
11.27131890190972
 30
0.0
 10
-11.22730780707465
 20
11.27131890190972
 30
0.0
 10
11.31498548719618
 20
11.27131890190972
 30
0.0
 10
11.31498548719618
 20
11.27131890190972
 30
0.0
  0
ENDBLK
  5
202
100
AcDbEntity
  8
PEGA_345
100
AcDbBlockEnd
  0
BLOCK
  5
205
100
AcDbEntity
  8
PEGA_345
 62
     7
100
AcDbBlockBegin
  2
AI9-BLK26
 70
     0
 10
0.0
 20
0.0
 30
0.0
  3
AI9-BLK26
  1

  0
SPLINE
  5
206
100
AcDbEntity
  8
PEGA_345
  6
AI9-LTYPE3
 62
     7
100
AcDbSpline
210
0.0
220
0.0
230
1.0
 70
     8
 71
     3
 72
    14
 73
    10
 74
     0
 42
0.0000001
 43
0.0000001
 40
0.0
 40
0.0
 40
0.0
 40
0.0
 40
1.0
 40
1.0
 40
1.0
 40
2.0
 40
2.0
 40
2.0
 40
3.0
 40
3.0
 40
3.0
 40
3.0
 10
4.498261176215277
 20
4.304302300347221
 30
0.0
 10
4.410755750868054
 20
4.306369357638888
 30
0.0
 10
4.337719726562499
 20
4.307747395833333
 30
0.0
 10
4.250214301215277
 20
4.307747395833333
 30
0.0
 10
-0.5167643229166666
 20
4.307747395833333
 30
0.0
 10
-4.385606553819443
 20
0.4595757378472222
 30
0.0
 10
-4.410755750868054
 20
-4.307747395833333
 30
0.0
 10
-4.410755750868054
 20
-4.307747395833333
 30
0.0
 10
4.250214301215277
 20
-4.307747395833333
 30
0.0
 10
4.250214301215277
 20
-4.307747395833333
 30
0.0
  0
ENDBLK
  5
207
100
AcDbEntity
  8
PEGA_345
100
AcDbBlockEnd
  0
BLOCK
  5
20A
100
AcDbEntity
  8
PEGA_345
 62
     7
100
AcDbBlockBegin
  2
AI9-BLK27
 70
     0
 10
0.0
 20
0.0
 30
0.0
  3
AI9-BLK27
  1

  0
SPLINE
  5
20B
100
AcDbEntity
  8
PEGA_345
  6
AI9-LTYPE3
 62
     7
100
AcDbSpline
210
0.0
220
0.0
230
-1.0
 70
     8
 71
     3
 72
    17
 73
    13
 74
     0
 42
0.0000001
 43
0.0000001
 40
0.0
 40
0.0
 40
0.0
 40
0.0
 40
1.0
 40
1.0
 40
1.0
 40
2.0
 40
2.0
 40
2.0
 40
3.0
 40
3.0
 40
3.0
 40
4.0
 40
4.0
 40
4.0
 40
4.0
 10
8.749939643012151
 20
8.793950737847222
 30
0.0
 10
8.749939643012151
 20
8.793950737847222
 30
0.0
 10
8.749939643012151
 20
8.793950737847222
 30
0.0
 10
8.749939643012151
 20
8.793950737847222
 30
0.0
 10
8.749939643012151
 20
-0.8709201388888889
 30
0.0
 10
0.9152757432725692
 20
-8.706445312499999
 30
0.0
 10
-8.74959513346354
 20
-8.706445312499999
 30
0.0
 10
-8.74959513346354
 20
-8.706445312499999
 30
0.0
 10
-8.749939643012151
 20
-8.706445312499999
 30
0.0
 10
-8.749939643012151
 20
-8.706445312499999
 30
0.0
 10
-8.749939643012151
 20
-8.706445312499999
 30
0.0
 10
-8.749939643012151
 20
8.793950737847222
 30
0.0
 10
-8.749939643012151
 20
8.793950737847222
 30
0.0
  0
ENDBLK
  5
20C
100
AcDbEntity
  8
PEGA_345
100
AcDbBlockEnd
  0
BLOCK
  5
20F
100
AcDbEntity
  8
PEGA_345
 62
     7
100
AcDbBlockBegin
  2
AI9-BLK28
 70
     0
 10
0.0
 20
0.0
 30
0.0
  3
AI9-BLK28
  1

  0
INSERT
  5
213
100
AcDbEntity
  8
PEGA_345
 62
     7
100
AcDbBlockReference
  2
AI9-BLK29
 10
0.0
 20
0.0
 30
0.0
  0
LINE
  5
211
100
AcDbEntity
  8
PEGA_345
 62
     7
100
AcDbLine
 10
-1.5875
 20
-1.5875
 30
0.0
 11
1.5875
 21
1.5875
 31
0.0
  0
LINE
  5
210
100
AcDbEntity
  8
PEGA_345
 62
     7
100
AcDbLine
 10
-1.5875
 20
1.5875
 30
0.0
 11
1.5875
 21
-1.5875
 31
0.0
  0
ENDBLK
  5
21C
100
AcDbEntity
  8
PEGA_345
100
AcDbBlockEnd
  0
BLOCK
  5
214
100
AcDbEntity
  8
PEGA_345
 62
     7
100
AcDbBlockBegin
  2
AI9-BLK29
 70
     0
 10
0.0
 20
0.0
 30
0.0
  3
AI9-BLK29
  1

  0
POLYLINE
  5
215
100
AcDbEntity
  8
PEGA_345
 62
     7
100
AcDb2dPolyline
 66
     1
 10
0.0
 20
0.0
 30
0.0
 70
     1
  0
VERTEX
  5
216
100
AcDbEntity
  8
PEGA_345
 62
     7
100
AcDbVertex
100
AcDb2dVertex
 10
-1.5875
 20
-1.5875
 30
0.0
  0
VERTEX
  5
217
100
AcDbEntity
  8
PEGA_345
 62
     7
100
AcDbVertex
100
AcDb2dVertex
 10
-1.5875
 20
1.5875
 30
0.0
  0
VERTEX
  5
218
100
AcDbEntity
  8
PEGA_345
 62
     7
100
AcDbVertex
100
AcDb2dVertex
 10
1.5875
 20
1.5875
 30
0.0
  0
VERTEX
  5
219
100
AcDbEntity
  8
PEGA_345
 62
     7
100
AcDbVertex
100
AcDb2dVertex
 10
1.5875
 20
-1.5875
 30
0.0
  0
SEQEND
  5
21A
100
AcDbEntity
  8
PEGA_345
 62
     7
  0
ENDBLK
  5
21B
100
AcDbEntity
  8
PEGA_345
100
AcDbBlockEnd
  0
BLOCK
  5
21F
100
AcDbEntity
  8
PEGA_345
 62
     7
100
AcDbBlockBegin
  2
AI9-BLK30
 70
     0
 10
0.0
 20
0.0
 30
0.0
  3
AI9-BLK30
  1

  0
POLYLINE
  5
220
100
AcDbEntity
  8
PEGA_345
 62
     7
100
AcDb2dPolyline
 66
     1
 10
0.0
 20
0.0
 30
0.0
 70
     1
  0
VERTEX
  5
221
100
AcDbEntity
  8
PEGA_345
 62
     7
100
AcDbVertex
100
AcDb2dVertex
 10
-8.74994
 20
-15.624886
 30
0.0
  0
VERTEX
  5
222
100
AcDbEntity
  8
PEGA_345
 62
     7
100
AcDbVertex
100
AcDb2dVertex
 10
-8.74994
 20
15.624886
 30
0.0
  0
VERTEX
  5
223
100
AcDbEntity
  8
PEGA_345
 62
     7
100
AcDbVertex
100
AcDb2dVertex
 10
8.74994
 20
15.624886
 30
0.0
  0
VERTEX
  5
224
100
AcDbEntity
  8
PEGA_345
 62
     7
100
AcDbVertex
100
AcDb2dVertex
 10
8.74994
 20
-15.624886
 30
0.0
  0
SEQEND
  5
225
100
AcDbEntity
  8
PEGA_345
 62
     7
  0
ENDBLK
  5
226
100
AcDbEntity
  8
PEGA_345
100
AcDbBlockEnd
  0
BLOCK
  5
22B
100
AcDbEntity
  8
PEGA_345
 62
     7
100
AcDbBlockBegin
  2
AI9-BLK31
 70
     0
 10
0.0
 20
0.0
 30
0.0
  3
AI9-BLK31
  1

  0
SPLINE
  5
284
100
AcDbEntity
  8
PEGA_345
 62
     7
100
AcDbSpline
210
0.0
220
0.0
230
1.0
 70
     8
 71
     3
 72
     8
 73
     4
 74
     0
 42
0.0000001
 43
0.0000001
 40
0.0
 40
0.0
 40
0.0
 40
0.0
 40
1.0
 40
1.0
 40
1.0
 40
1.0
 10
-1.873787434895833
 20
-10.17198893229166
 30
0.0
 10
-0.8299235026041666
 20
-10.45655381944444
 30
0.0
 10
0.2325439453125
 20
-10.66946072048611
 30
0.0
 10
1.306035698784722
 20
-10.808642578125
 30
0.0
  0
SPLINE
  5
283
100
AcDbEntity
  8
PEGA_345
 62
     7
100
AcDbSpline
210
0.0
220
0.0
230
1.0
 70
     8
 71
     3
 72
    11
 73
     7
 74
     0
 42
0.0000001
 43
0.0000001
 40
0.0
 40
0.0
 40
0.0
 40
0.0
 40
1.0
 40
1.0
 40
1.0
 40
2.0
 40
2.0
 40
2.0
 40
2.0
 10
1.306035698784722
 20
-10.808642578125
 30
0.0
 10
1.992987738715277
 20
-11.04153103298611
 30
0.0
 10
2.739195421006944
 20
-10.67290581597222
 30
0.0
 10
2.972772894965277
 20
-9.985264756944443
 30
0.0
 10
3.141582573784722
 20
-9.486414930555554
 30
0.0
 10
2.996199544270833
 20
-8.934510633680554
 30
0.0
 10
2.603458658854166
 20
-8.58311089409722
 30
0.0
  0
SPLINE
  5
282
100
AcDbEntity
  8
PEGA_345
 62
     7
100
AcDbSpline
210
0.0
220
0.0
230
-1.0
 70
     8
 71
     3
 72
     8
 73
     4
 74
     0
 42
0.0000001
 43
0.0000001
 40
0.0
 40
0.0
 40
0.0
 40
0.0
 40
1.0
 40
1.0
 40
1.0
 40
1.0
 10
4.030417209201388
 20
4.063490125868055
 30
0.0
 10
3.707956271701388
 20
4.991598849826388
 30
0.0
 10
2.912139214409721
 20
5.674761284722221
 30
0.0
 10
1.946823459201388
 20
5.854595269097221
 30
0.0
  0
SPLINE
  5
281
100
AcDbEntity
  8
PEGA_345
 62
     7
100
AcDbSpline
210
0.0
220
0.0
230
1.0
 70
     8
 71
     3
 72
     8
 73
     4
 74
     0
 42
0.0000001
 43
0.0000001
 40
0.0
 40
0.0
 40
0.0
 40
0.0
 40
1.0
 40
1.0
 40
1.0
 40
1.0
 10
2.624818250868055
 20
-8.49905056423611
 30
0.0
 10
4.66982693142361
 20
-6.250092230902777
 30
0.0
 10
5.744696723090277
 20
-3.283520507812499
 30
0.0
 10
5.613783094618055
 20
-0.2463243272569444
 30
0.0
  0
SPLINE
  5
280
100
AcDbEntity
  8
PEGA_345
 62
     7
100
AcDbSpline
210
0.0
220
0.0
230
1.0
 70
     8
 71
     3
 72
    14
 73
    10
 74
     0
 42
0.0000001
 43
0.0000001
 40
0.0
 40
0.0
 40
0.0
 40
0.0
 40
1.0
 40
1.0
 40
1.0
 40
2.0
 40
2.0
 40
2.0
 40
3.0
 40
3.0
 40
3.0
 40
3.0
 10
1.162030707465277
 20
-4.624696180555555
 30
0.0
 10
2.01572536892361
 20
-5.357812499999999
 30
0.0
 10
3.301435004340277
 20
-5.259971788194444
 30
0.0
 10
4.034551323784722
 20
-4.40627712673611
 30
0.0
 10
4.766978624131944
 20
-3.552926974826388
 30
0.0
 10
4.669137912326388
 20
-2.267217339409722
 30
0.0
 10
3.815443250868055
 20
-1.534101019965277
 30
0.0
 10
3.455086263020833
 20
-1.224731445312499
 30
0.0
 10
2.997577582465277
 20
-1.051098632812499
 30
0.0
 10
2.522154405381944
 20
-1.042830403645833
 30
0.0
  0
SPLINE
  5
27F
100
AcDbEntity
  8
PEGA_345
 62
     7
100
AcDbSpline
210
0.0
220
0.0
230
-1.0
 70
     8
 71
     3
 72
    14
 73
    10
 74
     0
 42
0.0000001
 43
0.0000001
 40
0.0
 40
0.0
 40
0.0
 40
0.0
 40
1.0
 40
1.0
 40
1.0
 40
2.0
 40
2.0
 40
2.0
 40
3.0
 40
3.0
 40
3.0
 40
3.0
 10
-4.217830403645833
 20
9.161886935763888
 30
0.0
 10
-4.354945203993055
 20
9.177734375
 30
0.0
 10
-4.478968641493055
 20
9.079893663194443
 30
0.0
 10
-4.495505099826388
 20
8.943467881944442
 30
0.0
 10
-4.5113525390625
 20
8.806353081597221
 30
0.0
 10
-4.413511827256944
 20
8.682329644097221
 30
0.0
 10
-4.277086046006943
 20
8.666482204861109
 30
0.0
 10
-4.241946072048611
 20
8.662348090277777
 30
0.0
 10
-4.206117078993055
 20
8.665104166666665
 30
0.0
 10
-4.172355143229165
 20
8.67612847222222
 30
0.0
  0
LINE
  5
27E
100
AcDbEntity
  8
PEGA_345
 62
     7
100
AcDbLine
 10
-3.514342
 20
8.959315
 30
0.0
 11
-4.28122
 21
9.576676
 31
0.0
  0
SPLINE
  5
27D
100
AcDbEntity
  8
PEGA_345
 62
     7
100
AcDbSpline
210
0.0
220
0.0
230
1.0
 70
     8
 71
     3
 72
     8
 73
     4
 74
     0
 42
0.0000001
 43
0.0000001
 40
0.0
 40
0.0
 40
0.0
 40
0.0
 40
1.0
 40
1.0
 40
1.0
 40
1.0
 10
-2.23896755642361
 20
9.934966362847221
 30
0.0
 10
-1.498272026909722
 20
9.066802300347221
 30
0.0
 10
-0.6425103081597223
 20
8.30405815972222
 30
0.0
 10
0.3042019314236111
 20
7.666715494791666
 30
0.0
  0
LINE
  5
27C
100
AcDbEntity
  8
PEGA_345
 62
     7
100
AcDbLine
 10
-4.777314
 20
10.499962
 30
0.0
 11
-4.845527
 21
10.300146
 31
0.0
  0
LINE
  5
27B
100
AcDbEntity
  8
PEGA_345
 62
     7
100
AcDbLine
 10
-4.63951
 20
10.588156
 30
0.0
 11
-4.777314
 21
10.499962
 31
0.0
  0
LINE
  5
27A
100
AcDbEntity
  8
PEGA_345
 62
     7
100
AcDbLine
 10
-4.493438
 20
10.560596
 30
0.0
 11
-4.63951
 21
10.588156
 31
0.0
  0
LINE
  5
279
100
AcDbEntity
  8
PEGA_345
 62
     7
100
AcDbLine
 10
-4.356323
 20
10.415902
 30
0.0
 11
-4.493438
 21
10.560596
 31
0.0
  0
LINE
  5
278
100
AcDbEntity
  8
PEGA_345
 62
     7
100
AcDbLine
 10
-4.343921
 20
10.567486
 30
0.0
 11
-4.354945
 21
10.403499
 31
0.0
  0
LINE
  5
277
100
AcDbEntity
  8
PEGA_345
 62
     7
100
AcDbLine
 10
-3.769968
 20
9.168777
 30
0.0
 11
-4.312226
 21
9.146039
 31
0.0
  0
LINE
  5
276
100
AcDbEntity
  8
PEGA_345
 62
     7
100
AcDbLine
 10
-4.506529
 20
9.775114
 30
0.0
 11
-4.100008
 21
9.404422
 31
0.0
  0
LINE
  5
275
100
AcDbEntity
  8
PEGA_345
 62
     7
100
AcDbLine
 10
-4.846905
 20
10.335286
 30
0.0
 11
-4.506529
 21
9.775114
 31
0.0
  0
LINE
  5
274
100
AcDbEntity
  8
PEGA_345
 62
     7
100
AcDbLine
 10
-4.354945
 20
10.403499
 30
0.0
 11
-3.911217
 21
9.898448
 31
0.0
  0
LINE
  5
273
100
AcDbEntity
  8
PEGA_345
 62
     7
100
AcDbLine
 10
-3.998033
 20
10.735607
 30
0.0
 11
-4.189581
 21
10.741119
 31
0.0
  0
LINE
  5
272
100
AcDbEntity
  8
PEGA_345
 62
     7
100
AcDbLine
 10
-3.025827
 20
10.849984
 30
0.0
 11
-2.823256
 21
10.686686
 31
0.0
  0
LINE
  5
271
100
AcDbEntity
  8
PEGA_345
 62
     7
100
AcDbLine
 10
-3.189125
 20
10.806576
 30
0.0
 11
-3.025827
 21
10.849984
 31
0.0
  0
SPLINE
  5
270
100
AcDbEntity
  8
PEGA_345
 62
     7
100
AcDbSpline
210
0.0
220
0.0
230
1.0
 70
     8
 71
     3
 72
     8
 73
     4
 74
     0
 42
0.0000001
 43
0.0000001
 40
0.0
 40
0.0
 40
0.0
 40
0.0
 40
1.0
 40
1.0
 40
1.0
 40
1.0
 10
-2.029505750868055
 20
9.715858289930555
 30
0.0
 10
-2.241034613715277
 20
10.07966037326388
 30
0.0
 10
-2.509063042534721
 20
10.40694444444444
 30
0.0
 10
-2.823255750868055
 20
10.68668619791666
 30
0.0
  0
LINE
  5
26F
100
AcDbEntity
  8
PEGA_345
 62
     7
100
AcDbLine
 10
-3.284899
 20
10.650857
 30
0.0
 11
-2.993443
 21
10.24847
 31
0.0
  0
LINE
  5
26E
100
AcDbEntity
  8
PEGA_345
 62
     7
100
AcDbLine
 10
-3.863675
 20
10.586089
 30
0.0
 11
-3.498494
 21
10.085173
 31
0.0
  0
LINE
  5
26D
100
AcDbEntity
  8
PEGA_345
 62
     7
100
AcDbLine
 10
-3.805108
 20
10.790728
 30
0.0
 11
-3.863675
 21
10.586089
 31
0.0
  0
LINE
  5
26C
100
AcDbEntity
  8
PEGA_345
 62
     7
100
AcDbLine
 10
-3.659036
 20
10.878234
 30
0.0
 11
-3.805108
 21
10.790728
 31
0.0
  0
LINE
  5
26B
100
AcDbEntity
  8
PEGA_345
 62
     7
100
AcDbLine
 10
-3.450952
 20
10.772814
 30
0.0
 11
-3.659036
 21
10.878234
 31
0.0
  0
LINE
  5
26A
100
AcDbEntity
  8
PEGA_345
 62
     7
100
AcDbLine
 10
-3.284899
 20
10.650857
 30
0.0
 11
-3.450952
 21
10.772814
 31
0.0
  0
LINE
  5
269
100
AcDbEntity
  8
PEGA_345
 62
     7
100
AcDbLine
 10
-3.189125
 20
10.806576
 30
0.0
 11
-3.284899
 21
10.650857
 31
0.0
  0
LINE
  5
268
100
AcDbEntity
  8
PEGA_345
 62
     7
100
AcDbLine
 10
-1.810398
 20
9.372038
 30
0.0
 11
-2.008146
 21
9.717236
 31
0.0
  0
LINE
  5
267
100
AcDbEntity
  8
PEGA_345
 62
     7
100
AcDbLine
 10
-3.860229
 20
10.57851
 30
0.0
 11
-3.998033
 21
10.735607
 31
0.0
  0
LINE
  5
266
100
AcDbEntity
  8
PEGA_345
 62
     7
100
AcDbLine
 10
-4.189581
 20
10.741119
 30
0.0
 11
-4.343921
 21
10.567486
 31
0.0
  0
SPLINE
  5
265
100
AcDbEntity
  8
PEGA_345
 62
     7
100
AcDbSpline
210
0.0
220
0.0
230
-1.0
 70
     8
 71
     3
 72
     8
 73
     4
 74
     0
 42
0.0000001
 43
0.0000001
 40
0.0
 40
0.0
 40
0.0
 40
0.0
 40
1.0
 40
1.0
 40
1.0
 40
1.0
 10
2.226565212673611
 20
1.544436306423611
 30
0.0
 10
1.232310655381944
 20
1.051098632812499
 30
0.0
 10
0.6845404730902778
 20
-0.0403076171875
 30
0.0
 10
0.8815999348958332
 20
-1.132402886284722
 30
0.0
  0
SPLINE
  5
264
100
AcDbEntity
  8
PEGA_345
 62
     7
100
AcDbSpline
210
0.0
220
0.0
230
-1.0
 70
     8
 71
     3
 72
    11
 73
     7
 74
     0
 42
0.0000001
 43
0.0000001
 40
0.0
 40
0.0
 40
0.0
 40
0.0
 40
1.0
 40
1.0
 40
1.0
 40
2.0
 40
2.0
 40
2.0
 40
2.0
 10
1.425925021701388
 20
-1.033184136284722
 30
0.0
 10
0.5164198133680556
 20
-0.9546359592013887
 30
0.0
 10
-0.2849093967013889
 20
-1.628496636284721
 30
0.0
 10
-0.3634575737847222
 20
-2.538001844618055
 30
0.0
 10
-0.4213351779513889
 20
-3.204283311631944
 30
0.0
 10
-0.0720024956597222
 20
-3.839558919270833
 30
0.0
 10
0.5212429470486111
 20
-4.147894965277777
 30
0.0
  0
LINE
  5
263
100
AcDbEntity
  8
PEGA_345
 62
     7
100
AcDbLine
 10
-2.923853
 20
8.688531
 30
0.0
 11
-2.601392
 21
8.687842
 31
0.0
  0
LINE
  5
262
100
AcDbEntity
  8
PEGA_345
 62
     7
100
AcDbLine
 10
-3.394453
 20
8.607227
 30
0.0
 11
-2.923853
 21
8.688531
 31
0.0
  0
LINE
  5
261
100
AcDbEntity
  8
PEGA_345
 62
     7
100
AcDbLine
 10
-4.370104
 20
8.696799
 30
0.0
 11
-3.394453
 21
8.607227
 31
0.0
  0
LINE
  5
260
100
AcDbEntity
  8
PEGA_345
 62
     7
100
AcDbLine
 10
-2.442228
 20
8.605849
 30
0.0
 11
-2.580721
 21
8.651324
 31
0.0
  0
SPLINE
  5
25F
100
AcDbEntity
  8
PEGA_345
 62
     7
100
AcDbSpline
210
0.0
220
0.0
230
-1.0
 70
     8
 71
     3
 72
     8
 73
     4
 74
     0
 42
0.0000001
 43
0.0000001
 40
0.0
 40
0.0
 40
0.0
 40
0.0
 40
1.0
 40
1.0
 40
1.0
 40
1.0
 10
1.571997070312499
 20
4.111032443576388
 30
0.0
 10
1.856561957465277
 20
2.668570963541666
 30
0.0
 10
2.272040473090277
 20
1.255048285590277
 30
0.0
 10
2.814298502604166
 20
-0.11162109375
 30
0.0
  0
SPLINE
  5
25E
100
AcDbEntity
  8
PEGA_345
 62
     7
100
AcDbSpline
210
0.0
220
0.0
230
-1.0
 70
     8
 71
     3
 72
     8
 73
     4
 74
     0
 42
0.0000001
 43
0.0000001
 40
0.0
 40
0.0
 40
0.0
 40
0.0
 40
1.0
 40
1.0
 40
1.0
 40
1.0
 10
2.309247504340277
 20
5.85115017361111
 30
0.0
 10
1.91650661892361
 20
6.704844835069443
 30
0.0
 10
1.192347547743055
 20
7.360791015624998
 30
0.0
 10
0.3042019314236111
 20
7.666715494791666
 30
0.0
  0
SPLINE
  5
25D
100
AcDbEntity
  8
PEGA_345
 62
     7
100
AcDbSpline
210
0.0
220
0.0
230
-1.0
 70
     8
 71
     3
 72
     8
 73
     4
 74
     0
 42
0.0000001
 43
0.0000001
 40
0.0
 40
0.0
 40
0.0
 40
0.0
 40
1.0
 40
1.0
 40
1.0
 40
1.0
 10
-2.495282660590277
 20
8.65407986111111
 30
0.0
 10
-1.261938476562499
 20
7.034195963541666
 30
0.0
 10
0.0981852213541667
 20
5.514908854166666
 30
0.0
 10
1.571997070312499
 20
4.111032443576388
 30
0.0
  0
LINE
  5
25C
100
AcDbEntity
  8
PEGA_345
 62
     7
100
AcDbLine
 10
-5.624118
 20
-8.609294
 30
0.0
 11
-5.534546
 21
-8.417746
 31
0.0
  0
LINE
  5
25B
100
AcDbEntity
  8
PEGA_345
 62
     7
100
AcDbLine
 10
-5.584844
 20
-8.768457
 30
0.0
 11
-5.624118
 21
-8.609294
 31
0.0
  0
LINE
  5
25A
100
AcDbEntity
  8
PEGA_345
 62
     7
100
AcDbLine
 10
-5.460821
 20
-8.849761
 30
0.0
 11
-5.584844
 21
-8.768457
 31
0.0
  0
LINE
  5
259
100
AcDbEntity
  8
PEGA_345
 62
     7
100
AcDbLine
 10
-5.56004
 20
-8.442551
 30
0.0
 11
-4.926831
 21
-8.273741
 31
0.0
  0
LINE
  5
258
100
AcDbEntity
  8
PEGA_345
 62
     7
100
AcDbLine
 10
-5.261694
 20
-8.840115
 30
0.0
 11
-5.460821
 21
-8.849761
 31
0.0
  0
LINE
  5
257
100
AcDbEntity
  8
PEGA_345
 62
     7
100
AcDbLine
 10
-5.357468
 20
-8.957937
 30
0.0
 11
-5.252048
 21
-8.831847
 31
0.0
  0
LINE
  5
256
100
AcDbEntity
  8
PEGA_345
 62
     7
100
AcDbLine
 10
-4.600925
 20
-10.074148
 30
0.0
 11
-4.341854
 21
-10.096197
 31
0.0
  0
LINE
  5
255
100
AcDbEntity
  8
PEGA_345
 62
     7
100
AcDbLine
 10
-4.689119
 20
-9.929454
 30
0.0
 11
-4.600925
 21
-10.074148
 31
0.0
  0
SPLINE
  5
254
100
AcDbEntity
  8
PEGA_345
 62
     7
100
AcDbSpline
210
0.0
220
0.0
230
1.0
 70
     8
 71
     3
 72
     8
 73
     4
 74
     0
 42
0.0000001
 43
0.0000001
 40
0.0
 40
0.0
 40
0.0
 40
0.0
 40
1.0
 40
1.0
 40
1.0
 40
1.0
 10
-4.341853841145832
 20
-10.09619683159722
 30
0.0
 10
-3.921552191840277
 20
-10.11135525173611
 30
0.0
 10
-3.501250542534721
 20
-10.06036783854166
 30
0.0
 10
-3.096796332465277
 20
-9.944612630208332
 30
0.0
  0
LINE
  5
253
100
AcDbEntity
  8
PEGA_345
 62
     7
100
AcDbLine
 10
-4.650534
 20
-9.750998
 30
0.0
 11
-4.161331
 21
-9.662115
 31
0.0
  0
LINE
  5
252
100
AcDbEntity
  8
PEGA_345
 62
     7
100
AcDbLine
 10
-5.223798
 20
-9.318294
 30
0.0
 11
-5.365736
 21
-9.190137
 31
0.0
  0
LINE
  5
251
100
AcDbEntity
  8
PEGA_345
 62
     7
100
AcDbLine
 10
-5.015715
 20
-9.30038
 30
0.0
 11
-5.223798
 21
-9.318294
 31
0.0
  0
LINE
  5
250
100
AcDbEntity
  8
PEGA_345
 62
     7
100
AcDbLine
 10
-5.023294
 20
-9.303825
 30
0.0
 11
-4.413512
 21
-9.19496
 31
0.0
  0
LINE
  5
24F
100
AcDbEntity
  8
PEGA_345
 62
     7
100
AcDbLine
 10
-5.123201
 20
-9.491927
 30
0.0
 11
-5.023294
 21
-9.303825
 31
0.0
  0
LINE
  5
24E
100
AcDbEntity
  8
PEGA_345
 62
     7
100
AcDbLine
 10
-5.077726
 20
-9.656603
 30
0.0
 11
-5.123201
 21
-9.491927
 31
0.0
  0
LINE
  5
24D
100
AcDbEntity
  8
PEGA_345
 62
     7
100
AcDbLine
 10
-4.854484
 20
-9.724127
 30
0.0
 11
-5.077726
 21
-9.656603
 31
0.0
  0
LINE
  5
24C
100
AcDbEntity
  8
PEGA_345
 62
     7
100
AcDbLine
 10
-4.650534
 20
-9.750998
 30
0.0
 11
-4.854484
 21
-9.724127
 31
0.0
  0
LINE
  5
24B
100
AcDbEntity
  8
PEGA_345
 62
     7
100
AcDbLine
 10
-4.689119
 20
-9.929454
 30
0.0
 11
-4.650534
 21
-9.750998
 31
0.0
  0
LINE
  5
24A
100
AcDbEntity
  8
PEGA_345
 62
     7
100
AcDbLine
 10
-5.252048
 20
-8.831847
 30
0.0
 11
-4.582322
 21
-8.774658
 31
0.0
  0
LINE
  5
249
100
AcDbEntity
  8
PEGA_345
 62
     7
100
AcDbLine
 10
-5.365736
 20
-9.190137
 30
0.0
 11
-5.357468
 21
-8.957937
 31
0.0
  0
LINE
  5
248
100
AcDbEntity
  8
PEGA_345
 62
     7
100
AcDbLine
 10
-3.975296
 20
-8.34471
 30
0.0
 11
-4.350811
 21
-7.953347
 31
0.0
  0
LINE
  5
247
100
AcDbEntity
  8
PEGA_345
 62
     7
100
AcDbLine
 10
-3.032029
 20
-8.5838
 30
0.0
 11
-2.798451
 21
-8.806353
 31
0.0
  0
LINE
  5
246
100
AcDbEntity
  8
PEGA_345
 62
     7
100
AcDbLine
 10
-3.315215
 20
-8.199327
 30
0.0
 11
-3.032029
 21
-8.5838
 31
0.0
  0
LINE
  5
245
100
AcDbEntity
  8
PEGA_345
 62
     7
100
AcDbLine
 10
-2.626885
 20
-8.85734
 30
0.0
 11
-2.758488
 21
-8.79464
 31
0.0
  0
LINE
  5
244
100
AcDbEntity
  8
PEGA_345
 62
     7
100
AcDbLine
 10
-2.626885
 20
-8.85734
 30
0.0
 11
-1.948201
 21
-8.762256
 31
0.0
  0
SPLINE
  5
243
100
AcDbEntity
  8
PEGA_345
 62
     7
100
AcDbSpline
210
0.0
220
0.0
230
1.0
 70
     8
 71
     3
 72
    14
 73
    10
 74
     0
 42
0.0000001
 43
0.0000001
 40
0.0
 40
0.0
 40
0.0
 40
0.0
 40
1.0
 40
1.0
 40
1.0
 40
2.0
 40
2.0
 40
2.0
 40
3.0
 40
3.0
 40
3.0
 40
3.0
 10
-3.924997287326388
 20
-7.71150173611111
 30
0.0
 10
-3.991143120659721
 20
-7.590234374999999
 30
0.0
 10
-4.14272732204861
 20
-7.546137152777776
 30
0.0
 10
-4.2633056640625
 20
-7.611593967013888
 30
0.0
 10
-4.38457302517361
 20
-7.677739800347221
 30
0.0
 10
-4.428670247395833
 20
-7.82932400173611
 30
0.0
 10
-4.362524414062499
 20
-7.950591362847221
 30
0.0
 10
-4.345987955729166
 20
-7.981597222222221
 30
0.0
 10
-4.32256130642361
 20
-8.008468967013888
 30
0.0
 10
-4.2943115234375
 20
-8.029828559027777
 30
0.0
  0
LINE
  5
242
100
AcDbEntity
  8
PEGA_345
 62
     7
100
AcDbLine
 10
-4.082094
 20
-7.589545
 30
0.0
 11
-3.315215
 21
-8.199327
 31
0.0
  0
LINE
  5
241
100
AcDbEntity
  8
PEGA_345
 62
     7
100
AcDbLine
 10
1.16961
 20
-4.660525
 30
0.0
 11
0.292489
 21
-4.004234
 31
0.0
  0
LINE
  5
240
100
AcDbEntity
  8
PEGA_345
 62
     7
100
AcDbLine
 10
1.454175
 20
-4.984364
 30
0.0
 11
1.519632
 21
-5.106321
 31
0.0
  0
LINE
  5
23F
100
AcDbEntity
  8
PEGA_345
 62
     7
100
AcDbLine
 10
-3.645945
 20
-8.370893
 30
0.0
 11
-4.626419
 21
-8.286144
 31
0.0
  0
LINE
  5
23E
100
AcDbEntity
  8
PEGA_345
 62
     7
100
AcDbLine
 10
-4.926831
 20
-8.273741
 30
0.0
 11
-4.376994
 21
-8.286833
 31
0.0
  0
SPLINE
  5
23D
100
AcDbEntity
  8
PEGA_345
 62
     7
100
AcDbSpline
210
0.0
220
0.0
230
-1.0
 70
     8
 71
     3
 72
     8
 73
     4
 74
     0
 42
0.0000001
 43
0.0000001
 40
0.0
 40
0.0
 40
0.0
 40
0.0
 40
1.0
 40
1.0
 40
1.0
 40
1.0
 10
2.243790690104166
 20
-1.057988823784722
 30
0.0
 10
2.240345594618055
 20
-1.057988823784722
 30
0.0
 10
2.236900499131944
 20
-1.058677842881944
 30
0.0
 10
2.233455403645832
 20
-1.058677842881944
 30
0.0
  0
LINE
  5
23C
100
AcDbEntity
  8
PEGA_345
 62
     7
100
AcDbLine
 10
2.632397
 20
-1.053855
 30
0.0
 11
2.471856
 21
-0.922252
 31
0.0
  0
LINE
  5
23B
100
AcDbEntity
  8
PEGA_345
 62
     7
100
AcDbLine
 10
2.471856
 20
-0.922252
 30
0.0
 11
2.5883
 21
-0.847149
 31
0.0
  0
LINE
  5
23A
100
AcDbEntity
  8
PEGA_345
 62
     7
100
AcDbLine
 10
2.491838
 20
-1.020093
 30
0.0
 11
1.273652
 21
-1.027672
 31
0.0
  0
LINE
  5
239
100
AcDbEntity
  8
PEGA_345
 62
     7
100
AcDbLine
 10
3.511586
 20
-1.039385
 30
0.0
 11
3.586
 21
-1.223353
 31
0.0
  0
LINE
  5
238
100
AcDbEntity
  8
PEGA_345
 62
     7
100
AcDbLine
 10
3.586
 20
-1.223353
 30
0.0
 11
3.437861
 21
-1.230244
 31
0.0
  0
LINE
  5
237
100
AcDbEntity
  8
PEGA_345
 62
     7
100
AcDbLine
 10
2.5883
 20
-0.847149
 30
0.0
 11
3.511586
 21
-1.039385
 31
0.0
  0
LINE
  5
236
100
AcDbEntity
  8
PEGA_345
 62
     7
100
AcDbLine
 10
-1.873787
 20
-10.171989
 30
0.0
 11
-2.70061
 21
-9.847461
 31
0.0
  0
LINE
  5
235
100
AcDbEntity
  8
PEGA_345
 62
     7
100
AcDbLine
 10
-1.086928
 20
-8.803597
 30
0.0
 11
0.111966
 21
-8.662348
 31
0.0
  0
LINE
  5
234
100
AcDbEntity
  8
PEGA_345
 62
     7
100
AcDbLine
 10
2.395375
 20
-5.390885
 30
0.0
 11
2.557294
 21
-5.327496
 31
0.0
  0
LINE
  5
233
100
AcDbEntity
  8
PEGA_345
 62
     7
100
AcDbLine
 10
2.557294
 20
-5.327496
 30
0.0
 11
2.426381
 21
-5.173844
 31
0.0
  0
LINE
  5
232
100
AcDbEntity
  8
PEGA_345
 62
     7
100
AcDbLine
 10
-2.70061
 20
-9.847461
 30
0.0
 11
-3.082327
 21
-9.959771
 31
0.0
  0
SPLINE
  5
231
100
AcDbEntity
  8
PEGA_345
 62
     7
100
AcDbSpline
210
0.0
220
0.0
230
-1.0
 70
     8
 71
     3
 72
    11
 73
     7
 74
     0
 42
0.0000001
 43
0.0000001
 40
0.0
 40
0.0
 40
0.0
 40
0.0
 40
1.0
 40
1.0
 40
1.0
 40
2.0
 40
2.0
 40
2.0
 40
2.0
 10
0.1781114366319444
 20
-6.704844835069443
 30
0.0
 10
-0.4220241970486111
 20
-7.451741536458333
 30
0.0
 10
-0.3035129123263889
 20
-8.543836805555555
 30
0.0
 10
0.4426947699652778
 20
-9.14397243923611
 30
0.0
 10
0.4778347439236111
 20
-9.171533203124999
 30
0.0
 10
0.5129747178819444
 20
-9.198404947916666
 30
0.0
 10
0.5494927300347223
 20
-9.223209635416665
 30
0.0
  0
SPLINE
  5
230
100
AcDbEntity
  8
PEGA_345
 62
     7
100
AcDbSpline
210
0.0
220
0.0
230
-1.0
 70
     8
 71
     3
 72
     8
 73
     4
 74
     0
 42
0.0000001
 43
0.0000001
 40
0.0
 40
0.0
 40
0.0
 40
0.0
 40
1.0
 40
1.0
 40
1.0
 40
1.0
 10
-0.0995632595486111
 20
-3.537768554687499
 30
0.0
 10
-0.4964382595486111
 20
-4.57990993923611
 30
0.0
 10
-0.3937744140625
 20
-5.747108289930555
 30
0.0
 10
0.1781114366319444
 20
-6.704844835069443
 30
0.0
  0
LINE
  5
22F
100
AcDbEntity
  8
PEGA_345
 62
     7
100
AcDbLine
 10
1.680862
 20
-4.952669
 30
0.0
 11
1.454175
 21
-4.984364
 31
0.0
  0
LINE
  5
22E
100
AcDbEntity
  8
PEGA_345
 62
     7
100
AcDbLine
 10
1.519632
 20
-5.106321
 30
0.0
 11
2.395375
 21
-5.390885
 31
0.0
  0
LINE
  5
22D
100
AcDbEntity
  8
PEGA_345
 62
     7
100
AcDbLine
 10
-1.948201
 20
-8.762256
 30
0.0
 11
-1.086928
 21
-8.803597
 31
0.0
  0
SPLINE
  5
22C
100
AcDbEntity
  8
PEGA_345
 62
     7
100
AcDbSpline
210
0.0
220
0.0
230
1.0
 70
     8
 71
     3
 72
     8
 73
     4
 74
     0
 42
0.0000001
 43
0.0000001
 40
0.0
 40
0.0
 40
0.0
 40
0.0
 40
1.0
 40
1.0
 40
1.0
 40
1.0
 10
5.613783094618055
 20
-0.2463243272569444
 30
0.0
 10
5.32715115017361
 20
1.267450629340277
 30
0.0
 10
4.791783311631943
 20
2.724037000868055
 30
0.0
 10
4.030417209201388
 20
4.063490125868055
 30
0.0
  0
ENDBLK
  5
285
100
AcDbEntity
  8
PEGA_345
100
AcDbBlockEnd
  0
BLOCK
  5
288
100
AcDbEntity
  8
PEGA_345
 62
     7
100
AcDbBlockBegin
  2
AI9-BLK32
 70
     0
 10
0.0
 20
0.0
 30
0.0
  3
AI9-BLK32
  1

  0
SPLINE
  5
2E1
100
AcDbEntity
  8
PEGA_345
 62
     7
100
AcDbSpline
210
0.0
220
0.0
230
1.0
 70
     8
 71
     3
 72
     8
 73
     4
 74
     0
 42
0.0000001
 43
0.0000001
 40
0.0
 40
0.0
 40
0.0
 40
0.0
 40
1.0
 40
1.0
 40
1.0
 40
1.0
 10
-1.873787434895833
 20
-10.17371148003472
 30
0.0
 10
-0.8299235026041666
 20
-10.4582763671875
 30
0.0
 10
0.2325439453125
 20
-10.67118326822916
 30
0.0
 10
1.306035698784722
 20
-10.81036512586805
 30
0.0
  0
SPLINE
  5
2E0
100
AcDbEntity
  8
PEGA_345
 62
     7
100
AcDbSpline
210
0.0
220
0.0
230
1.0
 70
     8
 71
     3
 72
    11
 73
     7
 74
     0
 42
0.0000001
 43
0.0000001
 40
0.0
 40
0.0
 40
0.0
 40
0.0
 40
1.0
 40
1.0
 40
1.0
 40
2.0
 40
2.0
 40
2.0
 40
2.0
 10
1.306035698784722
 20
-10.81036512586805
 30
0.0
 10
1.992987738715277
 20
-11.04325358072916
 30
0.0
 10
2.739195421006944
 20
-10.67462836371527
 30
0.0
 10
2.972772894965277
 20
-9.986987304687499
 30
0.0
 10
3.141582573784722
 20
-9.488137478298609
 30
0.0
 10
2.996199544270833
 20
-8.93623318142361
 30
0.0
 10
2.603458658854166
 20
-8.584833441840277
 30
0.0
  0
SPLINE
  5
2DF
100
AcDbEntity
  8
PEGA_345
 62
     7
100
AcDbSpline
210
0.0
220
0.0
230
-1.0
 70
     8
 71
     3
 72
     8
 73
     4
 74
     0
 42
0.0000001
 43
0.0000001
 40
0.0
 40
0.0
 40
0.0
 40
0.0
 40
1.0
 40
1.0
 40
1.0
 40
1.0
 10
4.030417209201388
 20
4.06211208767361
 30
0.0
 10
3.707956271701388
 20
4.990220811631943
 30
0.0
 10
2.912139214409721
 20
5.673038736979165
 30
0.0
 10
1.946823459201388
 20
5.852872721354166
 30
0.0
  0
SPLINE
  5
2DE
100
AcDbEntity
  8
PEGA_345
 62
     7
100
AcDbSpline
210
0.0
220
0.0
230
1.0
 70
     8
 71
     3
 72
     8
 73
     4
 74
     0
 42
0.0000001
 43
0.0000001
 40
0.0
 40
0.0
 40
0.0
 40
0.0
 40
1.0
 40
1.0
 40
1.0
 40
1.0
 10
2.624818250868055
 20
-8.500773111979166
 30
0.0
 10
4.66982693142361
 20
-6.251814778645832
 30
0.0
 10
5.744696723090277
 20
-3.284898546006944
 30
0.0
 10
5.613783094618055
 20
-0.2477023654513889
 30
0.0
  0
SPLINE
  5
2DD
100
AcDbEntity
  8
PEGA_345
 62
     7
100
AcDbSpline
210
0.0
220
0.0
230
1.0
 70
     8
 71
     3
 72
    14
 73
    10
 74
     0
 42
0.0000001
 43
0.0000001
 40
0.0
 40
0.0
 40
0.0
 40
0.0
 40
1.0
 40
1.0
 40
1.0
 40
2.0
 40
2.0
 40
2.0
 40
3.0
 40
3.0
 40
3.0
 40
3.0
 10
1.162030707465277
 20
-4.62641872829861
 30
0.0
 10
2.01572536892361
 20
-5.359535047743055
 30
0.0
 10
3.301435004340277
 20
-5.261694335937499
 30
0.0
 10
4.034551323784722
 20
-4.407999674479166
 30
0.0
 10
4.766978624131944
 20
-3.554305013020833
 30
0.0
 10
4.669137912326388
 20
-2.268595377604166
 30
0.0
 10
3.815443250868055
 20
-1.535479058159722
 30
0.0
 10
3.455086263020833
 20
-1.226109483506944
 30
0.0
 10
2.997577582465277
 20
-1.052476671006944
 30
0.0
 10
2.522154405381944
 20
-1.044208441840277
 30
0.0
  0
SPLINE
  5
2DC
100
AcDbEntity
  8
PEGA_345
 62
     7
100
AcDbSpline
210
0.0
220
0.0
230
-1.0
 70
     8
 71
     3
 72
    14
 73
    10
 74
     0
 42
0.0000001
 43
0.0000001
 40
0.0
 40
0.0
 40
0.0
 40
0.0
 40
1.0
 40
1.0
 40
1.0
 40
2.0
 40
2.0
 40
2.0
 40
3.0
 40
3.0
 40
3.0
 40
3.0
 10
-4.217830403645833
 20
9.160164388020833
 30
0.0
 10
-4.354945203993055
 20
9.176011827256942
 30
0.0
 10
-4.478968641493055
 20
9.078171115451388
 30
0.0
 10
-4.495505099826388
 20
8.941745334201387
 30
0.0
 10
-4.5113525390625
 20
8.804630533854165
 30
0.0
 10
-4.413511827256944
 20
8.680607096354165
 30
0.0
 10
-4.277086046006943
 20
8.664759657118054
 30
0.0
 10
-4.241946072048611
 20
8.66062554253472
 30
0.0
 10
-4.206117078993055
 20
8.66338161892361
 30
0.0
 10
-4.172355143229165
 20
8.674405924479165
 30
0.0
  0
LINE
  5
2DB
100
AcDbEntity
  8
PEGA_345
 62
     7
100
AcDbLine
 10
-3.514342
 20
8.957593
 30
0.0
 11
-4.28122
 21
9.574954
 31
0.0
  0
SPLINE
  5
2DA
100
AcDbEntity
  8
PEGA_345
 62
     7
100
AcDbSpline
210
0.0
220
0.0
230
1.0
 70
     8
 71
     3
 72
     8
 73
     4
 74
     0
 42
0.0000001
 43
0.0000001
 40
0.0
 40
0.0
 40
0.0
 40
0.0
 40
1.0
 40
1.0
 40
1.0
 40
1.0
 10
-2.23896755642361
 20
9.933243815104166
 30
0.0
 10
-1.498272026909722
 20
9.065079752604166
 30
0.0
 10
-0.6425103081597223
 20
8.302335611979165
 30
0.0
 10
0.3042019314236111
 20
7.66499294704861
 30
0.0
  0
LINE
  5
2D9
100
AcDbEntity
  8
PEGA_345
 62
     7
100
AcDbLine
 10
-4.777314
 20
10.498239
 30
0.0
 11
-4.845527
 21
10.298424
 31
0.0
  0
LINE
  5
2D8
100
AcDbEntity
  8
PEGA_345
 62
     7
100
AcDbLine
 10
-4.63951
 20
10.586434
 30
0.0
 11
-4.777314
 21
10.498239
 31
0.0
  0
LINE
  5
2D7
100
AcDbEntity
  8
PEGA_345
 62
     7
100
AcDbLine
 10
-4.493438
 20
10.558873
 30
0.0
 11
-4.63951
 21
10.586434
 31
0.0
  0
LINE
  5
2D6
100
AcDbEntity
  8
PEGA_345
 62
     7
100
AcDbLine
 10
-4.356323
 20
10.414179
 30
0.0
 11
-4.493438
 21
10.558873
 31
0.0
  0
LINE
  5
2D5
100
AcDbEntity
  8
PEGA_345
 62
     7
100
AcDbLine
 10
-4.343921
 20
10.565763
 30
0.0
 11
-4.354945
 21
10.401777
 31
0.0
  0
LINE
  5
2D4
100
AcDbEntity
  8
PEGA_345
 62
     7
100
AcDbLine
 10
-3.769968
 20
9.167055
 30
0.0
 11
-4.312226
 21
9.144317
 31
0.0
  0
LINE
  5
2D3
100
AcDbEntity
  8
PEGA_345
 62
     7
100
AcDbLine
 10
-4.506529
 20
9.773391
 30
0.0
 11
-4.100008
 21
9.402699
 31
0.0
  0
LINE
  5
2D2
100
AcDbEntity
  8
PEGA_345
 62
     7
100
AcDbLine
 10
-4.846905
 20
10.333564
 30
0.0
 11
-4.506529
 21
9.773391
 31
0.0
  0
LINE
  5
2D1
100
AcDbEntity
  8
PEGA_345
 62
     7
100
AcDbLine
 10
-4.354945
 20
10.401777
 30
0.0
 11
-3.911217
 21
9.896726
 31
0.0
  0
LINE
  5
2D0
100
AcDbEntity
  8
PEGA_345
 62
     7
100
AcDbLine
 10
-3.998033
 20
10.733884
 30
0.0
 11
-4.189581
 21
10.739396
 31
0.0
  0
LINE
  5
2CF
100
AcDbEntity
  8
PEGA_345
 62
     7
100
AcDbLine
 10
-3.025827
 20
10.848261
 30
0.0
 11
-2.823256
 21
10.684964
 31
0.0
  0
LINE
  5
2CE
100
AcDbEntity
  8
PEGA_345
 62
     7
100
AcDbLine
 10
-3.189125
 20
10.804853
 30
0.0
 11
-3.025827
 21
10.848261
 31
0.0
  0
SPLINE
  5
2CD
100
AcDbEntity
  8
PEGA_345
 62
     7
100
AcDbSpline
210
0.0
220
0.0
230
1.0
 70
     8
 71
     3
 72
     8
 73
     4
 74
     0
 42
0.0000001
 43
0.0000001
 40
0.0
 40
0.0
 40
0.0
 40
0.0
 40
1.0
 40
1.0
 40
1.0
 40
1.0
 10
-2.029505750868055
 20
9.714135742187499
 30
0.0
 10
-2.241034613715277
 20
10.07793782552083
 30
0.0
 10
-2.509063042534721
 20
10.40522189670138
 30
0.0
 10
-2.823255750868055
 20
10.68496365017361
 30
0.0
  0
LINE
  5
2CC
100
AcDbEntity
  8
PEGA_345
 62
     7
100
AcDbLine
 10
-3.284899
 20
10.649135
 30
0.0
 11
-2.993443
 21
10.246748
 31
0.0
  0
LINE
  5
2CB
100
AcDbEntity
  8
PEGA_345
 62
     7
100
AcDbLine
 10
-3.863675
 20
10.584367
 30
0.0
 11
-3.498494
 21
10.08345
 31
0.0
  0
LINE
  5
2CA
100
AcDbEntity
  8
PEGA_345
 62
     7
100
AcDbLine
 10
-3.805108
 20
10.789006
 30
0.0
 11
-3.863675
 21
10.584367
 31
0.0
  0
LINE
  5
2C9
100
AcDbEntity
  8
PEGA_345
 62
     7
100
AcDbLine
 10
-3.659036
 20
10.876511
 30
0.0
 11
-3.805108
 21
10.789006
 31
0.0
  0
LINE
  5
2C8
100
AcDbEntity
  8
PEGA_345
 62
     7
100
AcDbLine
 10
-3.450952
 20
10.771091
 30
0.0
 11
-3.659036
 21
10.876511
 31
0.0
  0
LINE
  5
2C7
100
AcDbEntity
  8
PEGA_345
 62
     7
100
AcDbLine
 10
-3.284899
 20
10.649135
 30
0.0
 11
-3.450952
 21
10.771091
 31
0.0
  0
LINE
  5
2C6
100
AcDbEntity
  8
PEGA_345
 62
     7
100
AcDbLine
 10
-3.189125
 20
10.804853
 30
0.0
 11
-3.284899
 21
10.649135
 31
0.0
  0
LINE
  5
2C5
100
AcDbEntity
  8
PEGA_345
 62
     7
100
AcDbLine
 10
-1.810398
 20
9.370315
 30
0.0
 11
-2.008146
 21
9.715514
 31
0.0
  0
LINE
  5
2C4
100
AcDbEntity
  8
PEGA_345
 62
     7
100
AcDbLine
 10
-3.860229
 20
10.576788
 30
0.0
 11
-3.998033
 21
10.733884
 31
0.0
  0
LINE
  5
2C3
100
AcDbEntity
  8
PEGA_345
 62
     7
100
AcDbLine
 10
-4.189581
 20
10.739396
 30
0.0
 11
-4.343921
 21
10.565763
 31
0.0
  0
SPLINE
  5
2C2
100
AcDbEntity
  8
PEGA_345
 62
     7
100
AcDbSpline
210
0.0
220
0.0
230
-1.0
 70
     8
 71
     3
 72
     8
 73
     4
 74
     0
 42
0.0000001
 43
0.0000001
 40
0.0
 40
0.0
 40
0.0
 40
0.0
 40
1.0
 40
1.0
 40
1.0
 40
1.0
 10
2.226565212673611
 20
1.543058268229166
 30
0.0
 10
1.232310655381944
 20
1.049720594618055
 30
0.0
 10
0.6845404730902778
 20
-0.0416856553819445
 30
0.0
 10
0.8815999348958332
 20
-1.133780924479166
 30
0.0
  0
SPLINE
  5
2C1
100
AcDbEntity
  8
PEGA_345
 62
     7
100
AcDbSpline
210
0.0
220
0.0
230
-1.0
 70
     8
 71
     3
 72
    11
 73
     7
 74
     0
 42
0.0000001
 43
0.0000001
 40
0.0
 40
0.0
 40
0.0
 40
0.0
 40
1.0
 40
1.0
 40
1.0
 40
2.0
 40
2.0
 40
2.0
 40
2.0
 10
1.425925021701388
 20
-1.034562174479166
 30
0.0
 10
0.5164198133680556
 20
-0.9560139973958332
 30
0.0
 10
-0.2849093967013889
 20
-1.629874674479166
 30
0.0
 10
-0.3634575737847222
 20
-2.539379882812499
 30
0.0
 10
-0.4213351779513889
 20
-3.205661349826388
 30
0.0
 10
-0.0720024956597222
 20
-3.840936957465277
 30
0.0
 10
0.5212429470486111
 20
-4.149617513020833
 30
0.0
  0
LINE
  5
2C0
100
AcDbEntity
  8
PEGA_345
 62
     7
100
AcDbLine
 10
-2.923853
 20
8.686808
 30
0.0
 11
-2.601392
 21
8.686119
 31
0.0
  0
LINE
  5
2BF
100
AcDbEntity
  8
PEGA_345
 62
     7
100
AcDbLine
 10
-3.394453
 20
8.605504
 30
0.0
 11
-2.923853
 21
8.686808
 31
0.0
  0
LINE
  5
2BE
100
AcDbEntity
  8
PEGA_345
 62
     7
100
AcDbLine
 10
-4.370104
 20
8.695076
 30
0.0
 11
-3.394453
 21
8.605504
 31
0.0
  0
LINE
  5
2BD
100
AcDbEntity
  8
PEGA_345
 62
     7
100
AcDbLine
 10
-2.442228
 20
8.604126
 30
0.0
 11
-2.580721
 21
8.649601
 31
0.0
  0
SPLINE
  5
2BC
100
AcDbEntity
  8
PEGA_345
 62
     7
100
AcDbSpline
210
0.0
220
0.0
230
-1.0
 70
     8
 71
     3
 72
     8
 73
     4
 74
     0
 42
0.0000001
 43
0.0000001
 40
0.0
 40
0.0
 40
0.0
 40
0.0
 40
1.0
 40
1.0
 40
1.0
 40
1.0
 10
1.571997070312499
 20
4.109654405381943
 30
0.0
 10
1.856561957465277
 20
2.66684841579861
 30
0.0
 10
2.272040473090277
 20
1.253670247395833
 30
0.0
 10
2.814298502604166
 20
-0.1133436414930556
 30
0.0
  0
SPLINE
  5
2BB
100
AcDbEntity
  8
PEGA_345
 62
     7
100
AcDbSpline
210
0.0
220
0.0
230
-1.0
 70
     8
 71
     3
 72
     8
 73
     4
 74
     0
 42
0.0000001
 43
0.0000001
 40
0.0
 40
0.0
 40
0.0
 40
0.0
 40
1.0
 40
1.0
 40
1.0
 40
1.0
 10
2.309247504340277
 20
5.849427625868054
 30
0.0
 10
1.91650661892361
 20
6.703122287326388
 30
0.0
 10
1.192347547743055
 20
7.359068467881943
 30
0.0
 10
0.3042019314236111
 20
7.66499294704861
 30
0.0
  0
SPLINE
  5
2BA
100
AcDbEntity
  8
PEGA_345
 62
     7
100
AcDbSpline
210
0.0
220
0.0
230
-1.0
 70
     8
 71
     3
 72
     8
 73
     4
 74
     0
 42
0.0000001
 43
0.0000001
 40
0.0
 40
0.0
 40
0.0
 40
0.0
 40
1.0
 40
1.0
 40
1.0
 40
1.0
 10
-2.495282660590277
 20
8.652357313368055
 30
0.0
 10
-1.261938476562499
 20
7.03247341579861
 30
0.0
 10
0.0981852213541667
 20
5.51318630642361
 30
0.0
 10
1.571997070312499
 20
4.109654405381943
 30
0.0
  0
LINE
  5
2B9
100
AcDbEntity
  8
PEGA_345
 62
     7
100
AcDbLine
 10
-5.624118
 20
-8.611016
 30
0.0
 11
-5.534546
 21
-8.419469
 31
0.0
  0
LINE
  5
2B8
100
AcDbEntity
  8
PEGA_345
 62
     7
100
AcDbLine
 10
-5.584844
 20
-8.77018
 30
0.0
 11
-5.624118
 21
-8.611016
 31
0.0
  0
LINE
  5
2B7
100
AcDbEntity
  8
PEGA_345
 62
     7
100
AcDbLine
 10
-5.460821
 20
-8.851484
 30
0.0
 11
-5.584844
 21
-8.77018
 31
0.0
  0
LINE
  5
2B6
100
AcDbEntity
  8
PEGA_345
 62
     7
100
AcDbLine
 10
-5.56004
 20
-8.444274
 30
0.0
 11
-4.926831
 21
-8.275464
 31
0.0
  0
LINE
  5
2B5
100
AcDbEntity
  8
PEGA_345
 62
     7
100
AcDbLine
 10
-5.261694
 20
-8.841838
 30
0.0
 11
-5.460821
 21
-8.851484
 31
0.0
  0
LINE
  5
2B4
100
AcDbEntity
  8
PEGA_345
 62
     7
100
AcDbLine
 10
-5.357468
 20
-8.95966
 30
0.0
 11
-5.252048
 21
-8.833569
 31
0.0
  0
LINE
  5
2B3
100
AcDbEntity
  8
PEGA_345
 62
     7
100
AcDbLine
 10
-4.600925
 20
-10.075871
 30
0.0
 11
-4.341854
 21
-10.097919
 31
0.0
  0
LINE
  5
2B2
100
AcDbEntity
  8
PEGA_345
 62
     7
100
AcDbLine
 10
-4.689119
 20
-9.931177
 30
0.0
 11
-4.600925
 21
-10.075871
 31
0.0
  0
SPLINE
  5
2B1
100
AcDbEntity
  8
PEGA_345
 62
     7
100
AcDbSpline
210
0.0
220
0.0
230
1.0
 70
     8
 71
     3
 72
     8
 73
     4
 74
     0
 42
0.0000001
 43
0.0000001
 40
0.0
 40
0.0
 40
0.0
 40
0.0
 40
1.0
 40
1.0
 40
1.0
 40
1.0
 10
-4.341853841145832
 20
-10.09791937934027
 30
0.0
 10
-3.921552191840277
 20
-10.11307779947916
 30
0.0
 10
-3.501250542534721
 20
-10.06209038628472
 30
0.0
 10
-3.096796332465277
 20
-9.946335177951388
 30
0.0
  0
LINE
  5
2B0
100
AcDbEntity
  8
PEGA_345
 62
     7
100
AcDbLine
 10
-4.650534
 20
-9.752721
 30
0.0
 11
-4.161331
 21
-9.663837
 31
0.0
  0
LINE
  5
2AF
100
AcDbEntity
  8
PEGA_345
 62
     7
100
AcDbLine
 10
-5.223798
 20
-9.320017
 30
0.0
 11
-5.365736
 21
-9.191859
 31
0.0
  0
LINE
  5
2AE
100
AcDbEntity
  8
PEGA_345
 62
     7
100
AcDbLine
 10
-5.015715
 20
-9.302102
 30
0.0
 11
-5.223798
 21
-9.320017
 31
0.0
  0
LINE
  5
2AD
100
AcDbEntity
  8
PEGA_345
 62
     7
100
AcDbLine
 10
-5.023294
 20
-9.305547
 30
0.0
 11
-4.413512
 21
-9.196682
 31
0.0
  0
LINE
  5
2AC
100
AcDbEntity
  8
PEGA_345
 62
     7
100
AcDbLine
 10
-5.123201
 20
-9.49365
 30
0.0
 11
-5.023294
 21
-9.305547
 31
0.0
  0
LINE
  5
2AB
100
AcDbEntity
  8
PEGA_345
 62
     7
100
AcDbLine
 10
-5.077726
 20
-9.658325
 30
0.0
 11
-5.123201
 21
-9.49365
 31
0.0
  0
LINE
  5
2AA
100
AcDbEntity
  8
PEGA_345
 62
     7
100
AcDbLine
 10
-4.854484
 20
-9.725849
 30
0.0
 11
-5.077726
 21
-9.658325
 31
0.0
  0
LINE
  5
2A9
100
AcDbEntity
  8
PEGA_345
 62
     7
100
AcDbLine
 10
-4.650534
 20
-9.752721
 30
0.0
 11
-4.854484
 21
-9.725849
 31
0.0
  0
LINE
  5
2A8
100
AcDbEntity
  8
PEGA_345
 62
     7
100
AcDbLine
 10
-4.689119
 20
-9.931177
 30
0.0
 11
-4.650534
 21
-9.752721
 31
0.0
  0
LINE
  5
2A7
100
AcDbEntity
  8
PEGA_345
 62
     7
100
AcDbLine
 10
-5.252048
 20
-8.833569
 30
0.0
 11
-4.582322
 21
-8.776381
 31
0.0
  0
LINE
  5
2A6
100
AcDbEntity
  8
PEGA_345
 62
     7
100
AcDbLine
 10
-5.365736
 20
-9.191859
 30
0.0
 11
-5.357468
 21
-8.95966
 31
0.0
  0
LINE
  5
2A5
100
AcDbEntity
  8
PEGA_345
 62
     7
100
AcDbLine
 10
-3.975296
 20
-8.346433
 30
0.0
 11
-4.350811
 21
-7.95507
 31
0.0
  0
LINE
  5
2A4
100
AcDbEntity
  8
PEGA_345
 62
     7
100
AcDbLine
 10
-3.032029
 20
-8.585522
 30
0.0
 11
-2.798451
 21
-8.808076
 31
0.0
  0
LINE
  5
2A3
100
AcDbEntity
  8
PEGA_345
 62
     7
100
AcDbLine
 10
-3.315215
 20
-8.20105
 30
0.0
 11
-3.032029
 21
-8.585522
 31
0.0
  0
LINE
  5
2A2
100
AcDbEntity
  8
PEGA_345
 62
     7
100
AcDbLine
 10
-2.626885
 20
-8.859063
 30
0.0
 11
-2.758488
 21
-8.796362
 31
0.0
  0
LINE
  5
2A1
100
AcDbEntity
  8
PEGA_345
 62
     7
100
AcDbLine
 10
-2.626885
 20
-8.859063
 30
0.0
 11
-1.948201
 21
-8.763978
 31
0.0
  0
SPLINE
  5
2A0
100
AcDbEntity
  8
PEGA_345
 62
     7
100
AcDbSpline
210
0.0
220
0.0
230
1.0
 70
     8
 71
     3
 72
    14
 73
    10
 74
     0
 42
0.0000001
 43
0.0000001
 40
0.0
 40
0.0
 40
0.0
 40
0.0
 40
1.0
 40
1.0
 40
1.0
 40
2.0
 40
2.0
 40
2.0
 40
3.0
 40
3.0
 40
3.0
 40
3.0
 10
-3.924997287326388
 20
-7.713224283854166
 30
0.0
 10
-3.991143120659721
 20
-7.591956922743055
 30
0.0
 10
-4.14272732204861
 20
-7.547859700520832
 30
0.0
 10
-4.2633056640625
 20
-7.613316514756943
 30
0.0
 10
-4.38457302517361
 20
-7.679462348090277
 30
0.0
 10
-4.428670247395833
 20
-7.831046549479165
 30
0.0
 10
-4.362524414062499
 20
-7.952313910590277
 30
0.0
 10
-4.345987955729166
 20
-7.983319769965277
 30
0.0
 10
-4.32256130642361
 20
-8.010191514756943
 30
0.0
 10
-4.2943115234375
 20
-8.031551106770832
 30
0.0
  0
LINE
  5
29F
100
AcDbEntity
  8
PEGA_345
 62
     7
100
AcDbLine
 10
-4.082094
 20
-7.591268
 30
0.0
 11
-3.315215
 21
-8.20105
 31
0.0
  0
LINE
  5
29E
100
AcDbEntity
  8
PEGA_345
 62
     7
100
AcDbLine
 10
1.16961
 20
-4.662248
 30
0.0
 11
0.292489
 21
-4.005613
 31
0.0
  0
LINE
  5
29D
100
AcDbEntity
  8
PEGA_345
 62
     7
100
AcDbLine
 10
1.454175
 20
-4.986087
 30
0.0
 11
1.519632
 21
-5.108043
 31
0.0
  0
LINE
  5
29C
100
AcDbEntity
  8
PEGA_345
 62
     7
100
AcDbLine
 10
-3.645945
 20
-8.372616
 30
0.0
 11
-4.626419
 21
-8.287866
 31
0.0
  0
LINE
  5
29B
100
AcDbEntity
  8
PEGA_345
 62
     7
100
AcDbLine
 10
-4.926831
 20
-8.275464
 30
0.0
 11
-4.376994
 21
-8.288555
 31
0.0
  0
SPLINE
  5
29A
100
AcDbEntity
  8
PEGA_345
 62
     7
100
AcDbSpline
210
0.0
220
0.0
230
-1.0
 70
     8
 71
     3
 72
     8
 73
     4
 74
     0
 42
0.0000001
 43
0.0000001
 40
0.0
 40
0.0
 40
0.0
 40
0.0
 40
1.0
 40
1.0
 40
1.0
 40
1.0
 10
2.243790690104166
 20
-1.059366861979166
 30
0.0
 10
2.240345594618055
 20
-1.059366861979166
 30
0.0
 10
2.236900499131944
 20
-1.060055881076388
 30
0.0
 10
2.233455403645832
 20
-1.060055881076388
 30
0.0
  0
LINE
  5
299
100
AcDbEntity
  8
PEGA_345
 62
     7
100
AcDbLine
 10
2.632397
 20
-1.055233
 30
0.0
 11
2.471856
 21
-0.92363
 31
0.0
  0
LINE
  5
298
100
AcDbEntity
  8
PEGA_345
 62
     7
100
AcDbLine
 10
2.471856
 20
-0.92363
 30
0.0
 11
2.5883
 21
-0.848527
 31
0.0
  0
LINE
  5
297
100
AcDbEntity
  8
PEGA_345
 62
     7
100
AcDbLine
 10
2.491838
 20
-1.021471
 30
0.0
 11
1.273652
 21
-1.02905
 31
0.0
  0
LINE
  5
296
100
AcDbEntity
  8
PEGA_345
 62
     7
100
AcDbLine
 10
3.511586
 20
-1.040763
 30
0.0
 11
3.586
 21
-1.224731
 31
0.0
  0
LINE
  5
295
100
AcDbEntity
  8
PEGA_345
 62
     7
100
AcDbLine
 10
3.586
 20
-1.224731
 30
0.0
 11
3.437861
 21
-1.231622
 31
0.0
  0
LINE
  5
294
100
AcDbEntity
  8
PEGA_345
 62
     7
100
AcDbLine
 10
2.5883
 20
-0.848527
 30
0.0
 11
3.511586
 21
-1.040763
 31
0.0
  0
LINE
  5
293
100
AcDbEntity
  8
PEGA_345
 62
     7
100
AcDbLine
 10
-1.873787
 20
-10.173711
 30
0.0
 11
-2.70061
 21
-9.849183
 31
0.0
  0
LINE
  5
292
100
AcDbEntity
  8
PEGA_345
 62
     7
100
AcDbLine
 10
-1.086928
 20
-8.80532
 30
0.0
 11
0.111966
 21
-8.664071
 31
0.0
  0
LINE
  5
291
100
AcDbEntity
  8
PEGA_345
 62
     7
100
AcDbLine
 10
2.395375
 20
-5.392608
 30
0.0
 11
2.557294
 21
-5.329218
 31
0.0
  0
LINE
  5
290
100
AcDbEntity
  8
PEGA_345
 62
     7
100
AcDbLine
 10
2.557294
 20
-5.329218
 30
0.0
 11
2.426381
 21
-5.175567
 31
0.0
  0
LINE
  5
28F
100
AcDbEntity
  8
PEGA_345
 62
     7
100
AcDbLine
 10
-2.70061
 20
-9.849183
 30
0.0
 11
-3.082327
 21
-9.961494
 31
0.0
  0
SPLINE
  5
28E
100
AcDbEntity
  8
PEGA_345
 62
     7
100
AcDbSpline
210
0.0
220
0.0
230
-1.0
 70
     8
 71
     3
 72
    11
 73
     7
 74
     0
 42
0.0000001
 43
0.0000001
 40
0.0
 40
0.0
 40
0.0
 40
0.0
 40
1.0
 40
1.0
 40
1.0
 40
2.0
 40
2.0
 40
2.0
 40
2.0
 10
0.1781114366319444
 20
-6.706567382812499
 30
0.0
 10
-0.4220241970486111
 20
-7.453464084201388
 30
0.0
 10
-0.3035129123263889
 20
-8.54555935329861
 30
0.0
 10
0.4426947699652778
 20
-9.145694986979165
 30
0.0
 10
0.4778347439236111
 20
-9.173255750868055
 30
0.0
 10
0.5129747178819444
 20
-9.200127495659721
 30
0.0
 10
0.5494927300347223
 20
-9.224932183159721
 30
0.0
  0
SPLINE
  5
28D
100
AcDbEntity
  8
PEGA_345
 62
     7
100
AcDbSpline
210
0.0
220
0.0
230
-1.0
 70
     8
 71
     3
 72
     8
 73
     4
 74
     0
 42
0.0000001
 43
0.0000001
 40
0.0
 40
0.0
 40
0.0
 40
0.0
 40
1.0
 40
1.0
 40
1.0
 40
1.0
 10
-0.0995632595486111
 20
-3.539146592881944
 30
0.0
 10
-0.4964382595486111
 20
-4.581632486979166
 30
0.0
 10
-0.3937744140625
 20
-5.74883083767361
 30
0.0
 10
0.1781114366319444
 20
-6.706567382812499
 30
0.0
  0
LINE
  5
28C
100
AcDbEntity
  8
PEGA_345
 62
     7
100
AcDbLine
 10
1.680862
 20
-4.954392
 30
0.0
 11
1.454175
 21
-4.986087
 31
0.0
  0
LINE
  5
28B
100
AcDbEntity
  8
PEGA_345
 62
     7
100
AcDbLine
 10
1.519632
 20
-5.108043
 30
0.0
 11
2.395375
 21
-5.392608
 31
0.0
  0
LINE
  5
28A
100
AcDbEntity
  8
PEGA_345
 62
     7
100
AcDbLine
 10
-1.948201
 20
-8.763978
 30
0.0
 11
-1.086928
 21
-8.80532
 31
0.0
  0
SPLINE
  5
289
100
AcDbEntity
  8
PEGA_345
 62
     7
100
AcDbSpline
210
0.0
220
0.0
230
1.0
 70
     8
 71
     3
 72
     8
 73
     4
 74
     0
 42
0.0000001
 43
0.0000001
 40
0.0
 40
0.0
 40
0.0
 40
0.0
 40
1.0
 40
1.0
 40
1.0
 40
1.0
 10
5.613783094618055
 20
-0.2477023654513889
 30
0.0
 10
5.32715115017361
 20
1.266072591145833
 30
0.0
 10
4.791783311631943
 20
2.722658962673611
 30
0.0
 10
4.030417209201388
 20
4.06211208767361
 30
0.0
  0
ENDBLK
  5
2E2
100
AcDbEntity
  8
PEGA_345
100
AcDbBlockEnd
  0
BLOCK
  5
2E5
100
AcDbEntity
  8
PEGA_345
 62
     7
100
AcDbBlockBegin
  2
AI9-BLK33
 70
     0
 10
0.0
 20
0.0
 30
0.0
  3
AI9-BLK33
  1

  0
SPLINE
  5
33E
100
AcDbEntity
  8
PEGA_345
 62
     7
100
AcDbSpline
210
0.0
220
0.0
230
1.0
 70
     8
 71
     3
 72
     8
 73
     4
 74
     0
 42
0.0000001
 43
0.0000001
 40
0.0
 40
0.0
 40
0.0
 40
0.0
 40
1.0
 40
1.0
 40
1.0
 40
1.0
 10
-1.873787434895833
 20
-10.17362535264757
 30
0.0
 10
-0.8299235026041666
 20
-10.45819023980034
 30
0.0
 10
0.2325439453125
 20
-10.67109714084201
 30
0.0
 10
1.306035698784722
 20
-10.8102789984809
 30
0.0
  0
SPLINE
  5
33D
100
AcDbEntity
  8
PEGA_345
 62
     7
100
AcDbSpline
210
0.0
220
0.0
230
1.0
 70
     8
 71
     3
 72
    11
 73
     7
 74
     0
 42
0.0000001
 43
0.0000001
 40
0.0
 40
0.0
 40
0.0
 40
0.0
 40
1.0
 40
1.0
 40
1.0
 40
2.0
 40
2.0
 40
2.0
 40
2.0
 10
1.306035698784722
 20
-10.8102789984809
 30
0.0
 10
1.992987738715277
 20
-11.04316745334201
 30
0.0
 10
2.739195421006944
 20
-10.67454223632812
 30
0.0
 10
2.972772894965277
 20
-9.986901177300346
 30
0.0
 10
3.141582573784722
 20
-9.488051350911456
 30
0.0
 10
2.996199544270833
 20
-8.936147054036457
 30
0.0
 10
2.603458658854166
 20
-8.584747314453125
 30
0.0
  0
SPLINE
  5
33C
100
AcDbEntity
  8
PEGA_345
 62
     7
100
AcDbSpline
210
0.0
220
0.0
230
-1.0
 70
     8
 71
     3
 72
     8
 73
     4
 74
     0
 42
0.0000001
 43
0.0000001
 40
0.0
 40
0.0
 40
0.0
 40
0.0
 40
1.0
 40
1.0
 40
1.0
 40
1.0
 10
4.030417209201388
 20
4.062198215060763
 30
0.0
 10
3.707956271701388
 20
4.990306939019096
 30
0.0
 10
2.912139214409721
 20
5.673124864366318
 30
0.0
 10
1.946823459201388
 20
5.852958848741319
 30
0.0
  0
SPLINE
  5
33B
100
AcDbEntity
  8
PEGA_345
 62
     7
100
AcDbSpline
210
0.0
220
0.0
230
1.0
 70
     8
 71
     3
 72
     8
 73
     4
 74
     0
 42
0.0000001
 43
0.0000001
 40
0.0
 40
0.0
 40
0.0
 40
0.0
 40
1.0
 40
1.0
 40
1.0
 40
1.0
 10
2.624818250868055
 20
-8.500686984592013
 30
0.0
 10
4.66982693142361
 20
-6.251728651258679
 30
0.0
 10
5.744696723090277
 20
-3.284812418619791
 30
0.0
 10
5.613783094618055
 20
-0.2476162380642361
 30
0.0
  0
SPLINE
  5
33A
100
AcDbEntity
  8
PEGA_345
 62
     7
100
AcDbSpline
210
0.0
220
0.0
230
1.0
 70
     8
 71
     3
 72
    14
 73
    10
 74
     0
 42
0.0000001
 43
0.0000001
 40
0.0
 40
0.0
 40
0.0
 40
0.0
 40
1.0
 40
1.0
 40
1.0
 40
2.0
 40
2.0
 40
2.0
 40
3.0
 40
3.0
 40
3.0
 40
3.0
 10
1.162030707465277
 20
-4.626332600911458
 30
0.0
 10
2.01572536892361
 20
-5.359448920355902
 30
0.0
 10
3.301435004340277
 20
-5.261608208550346
 30
0.0
 10
4.034551323784722
 20
-4.407913547092013
 30
0.0
 10
4.766978624131944
 20
-3.55421888563368
 30
0.0
 10
4.669137912326388
 20
-2.268509250217013
 30
0.0
 10
3.815443250868055
 20
-1.535392930772569
 30
0.0
 10
3.455086263020833
 20
-1.226023356119791
 30
0.0
 10
2.997577582465277
 20
-1.052390543619791
 30
0.0
 10
2.522154405381944
 20
-1.044122314453124
 30
0.0
  0
SPLINE
  5
339
100
AcDbEntity
  8
PEGA_345
 62
     7
100
AcDbSpline
210
0.0
220
0.0
230
-1.0
 70
     8
 71
     3
 72
    14
 73
    10
 74
     0
 42
0.0000001
 43
0.0000001
 40
0.0
 40
0.0
 40
0.0
 40
0.0
 40
1.0
 40
1.0
 40
1.0
 40
2.0
 40
2.0
 40
2.0
 40
3.0
 40
3.0
 40
3.0
 40
3.0
 10
-4.217830403645833
 20
9.160250515407986
 30
0.0
 10
-4.354945203993055
 20
9.176097954644095
 30
0.0
 10
-4.478968641493055
 20
9.078257242838541
 30
0.0
 10
-4.495505099826388
 20
8.94183146158854
 30
0.0
 10
-4.5113525390625
 20
8.804716661241318
 30
0.0
 10
-4.413511827256944
 20
8.680693223741318
 30
0.0
 10
-4.277086046006943
 20
8.664845784505207
 30
0.0
 10
-4.241946072048611
 20
8.660711669921873
 30
0.0
 10
-4.206117078993055
 20
8.663467746310763
 30
0.0
 10
-4.172355143229165
 20
8.674492051866318
 30
0.0
  0
LINE
  5
338
100
AcDbEntity
  8
PEGA_345
 62
     7
100
AcDbLine
 10
-3.514342
 20
8.957679
 30
0.0
 11
-4.28122
 21
9.57504
 31
0.0
  0
SPLINE
  5
337
100
AcDbEntity
  8
PEGA_345
 62
     7
100
AcDbSpline
210
0.0
220
0.0
230
1.0
 70
     8
 71
     3
 72
     8
 73
     4
 74
     0
 42
0.0000001
 43
0.0000001
 40
0.0
 40
0.0
 40
0.0
 40
0.0
 40
1.0
 40
1.0
 40
1.0
 40
1.0
 10
-2.23896755642361
 20
9.933329942491319
 30
0.0
 10
-1.498272026909722
 20
9.065165879991319
 30
0.0
 10
-0.6425103081597223
 20
8.302421739366318
 30
0.0
 10
0.3042019314236111
 20
7.665079074435762
 30
0.0
  0
LINE
  5
336
100
AcDbEntity
  8
PEGA_345
 62
     7
100
AcDbLine
 10
-4.777314
 20
10.498326
 30
0.0
 11
-4.845527
 21
10.29851
 31
0.0
  0
LINE
  5
335
100
AcDbEntity
  8
PEGA_345
 62
     7
100
AcDbLine
 10
-4.63951
 20
10.58652
 30
0.0
 11
-4.777314
 21
10.498326
 31
0.0
  0
LINE
  5
334
100
AcDbEntity
  8
PEGA_345
 62
     7
100
AcDbLine
 10
-4.493438
 20
10.558959
 30
0.0
 11
-4.63951
 21
10.58652
 31
0.0
  0
LINE
  5
333
100
AcDbEntity
  8
PEGA_345
 62
     7
100
AcDbLine
 10
-4.356323
 20
10.414265
 30
0.0
 11
-4.493438
 21
10.558959
 31
0.0
  0
LINE
  5
332
100
AcDbEntity
  8
PEGA_345
 62
     7
100
AcDbLine
 10
-4.343921
 20
10.565849
 30
0.0
 11
-4.354945
 21
10.401863
 31
0.0
  0
LINE
  5
331
100
AcDbEntity
  8
PEGA_345
 62
     7
100
AcDbLine
 10
-3.769968
 20
9.167141
 30
0.0
 11
-4.312226
 21
9.144403
 31
0.0
  0
LINE
  5
330
100
AcDbEntity
  8
PEGA_345
 62
     7
100
AcDbLine
 10
-4.506529
 20
9.773478
 30
0.0
 11
-4.100008
 21
9.402785
 31
0.0
  0
LINE
  5
32F
100
AcDbEntity
  8
PEGA_345
 62
     7
100
AcDbLine
 10
-4.846905
 20
10.33365
 30
0.0
 11
-4.506529
 21
9.773478
 31
0.0
  0
LINE
  5
32E
100
AcDbEntity
  8
PEGA_345
 62
     7
100
AcDbLine
 10
-4.354945
 20
10.401863
 30
0.0
 11
-3.911217
 21
9.896812
 31
0.0
  0
LINE
  5
32D
100
AcDbEntity
  8
PEGA_345
 62
     7
100
AcDbLine
 10
-3.998033
 20
10.73397
 30
0.0
 11
-4.189581
 21
10.739482
 31
0.0
  0
LINE
  5
32C
100
AcDbEntity
  8
PEGA_345
 62
     7
100
AcDbLine
 10
-3.025827
 20
10.848347
 30
0.0
 11
-2.823256
 21
10.68505
 31
0.0
  0
LINE
  5
32B
100
AcDbEntity
  8
PEGA_345
 62
     7
100
AcDbLine
 10
-3.189125
 20
10.804939
 30
0.0
 11
-3.025827
 21
10.848347
 31
0.0
  0
SPLINE
  5
32A
100
AcDbEntity
  8
PEGA_345
 62
     7
100
AcDbSpline
210
0.0
220
0.0
230
1.0
 70
     8
 71
     3
 72
     8
 73
     4
 74
     0
 42
0.0000001
 43
0.0000001
 40
0.0
 40
0.0
 40
0.0
 40
0.0
 40
1.0
 40
1.0
 40
1.0
 40
1.0
 10
-2.029505750868055
 20
9.714221869574652
 30
0.0
 10
-2.241034613715277
 20
10.07802395290798
 30
0.0
 10
-2.509063042534721
 20
10.40530802408854
 30
0.0
 10
-2.823255750868055
 20
10.68504977756076
 30
0.0
  0
LINE
  5
329
100
AcDbEntity
  8
PEGA_345
 62
     7
100
AcDbLine
 10
-3.284899
 20
10.649221
 30
0.0
 11
-2.993443
 21
10.246834
 31
0.0
  0
LINE
  5
328
100
AcDbEntity
  8
PEGA_345
 62
     7
100
AcDbLine
 10
-3.863675
 20
10.584453
 30
0.0
 11
-3.498494
 21
10.083536
 31
0.0
  0
LINE
  5
327
100
AcDbEntity
  8
PEGA_345
 62
     7
100
AcDbLine
 10
-3.805108
 20
10.789092
 30
0.0
 11
-3.863675
 21
10.584453
 31
0.0
  0
LINE
  5
326
100
AcDbEntity
  8
PEGA_345
 62
     7
100
AcDbLine
 10
-3.659036
 20
10.876597
 30
0.0
 11
-3.805108
 21
10.789092
 31
0.0
  0
LINE
  5
325
100
AcDbEntity
  8
PEGA_345
 62
     7
100
AcDbLine
 10
-3.450952
 20
10.771177
 30
0.0
 11
-3.659036
 21
10.876597
 31
0.0
  0
LINE
  5
324
100
AcDbEntity
  8
PEGA_345
 62
     7
100
AcDbLine
 10
-3.284899
 20
10.649221
 30
0.0
 11
-3.450952
 21
10.771177
 31
0.0
  0
LINE
  5
323
100
AcDbEntity
  8
PEGA_345
 62
     7
100
AcDbLine
 10
-3.189125
 20
10.804939
 30
0.0
 11
-3.284899
 21
10.649221
 31
0.0
  0
LINE
  5
322
100
AcDbEntity
  8
PEGA_345
 62
     7
100
AcDbLine
 10
-1.810398
 20
9.370401
 30
0.0
 11
-2.008146
 21
9.7156
 31
0.0
  0
LINE
  5
321
100
AcDbEntity
  8
PEGA_345
 62
     7
100
AcDbLine
 10
-3.860229
 20
10.576874
 30
0.0
 11
-3.998033
 21
10.73397
 31
0.0
  0
LINE
  5
320
100
AcDbEntity
  8
PEGA_345
 62
     7
100
AcDbLine
 10
-4.189581
 20
10.739482
 30
0.0
 11
-4.343921
 21
10.565849
 31
0.0
  0
SPLINE
  5
31F
100
AcDbEntity
  8
PEGA_345
 62
     7
100
AcDbSpline
210
0.0
220
0.0
230
-1.0
 70
     8
 71
     3
 72
     8
 73
     4
 74
     0
 42
0.0000001
 43
0.0000001
 40
0.0
 40
0.0
 40
0.0
 40
0.0
 40
1.0
 40
1.0
 40
1.0
 40
1.0
 10
2.226565212673611
 20
1.543144395616319
 30
0.0
 10
1.232310655381944
 20
1.049806722005208
 30
0.0
 10
0.6845404730902778
 20
-0.0415995279947917
 30
0.0
 10
0.8815999348958332
 20
-1.133694797092013
 30
0.0
  0
SPLINE
  5
31E
100
AcDbEntity
  8
PEGA_345
 62
     7
100
AcDbSpline
210
0.0
220
0.0
230
-1.0
 70
     8
 71
     3
 72
    11
 73
     7
 74
     0
 42
0.0000001
 43
0.0000001
 40
0.0
 40
0.0
 40
0.0
 40
0.0
 40
1.0
 40
1.0
 40
1.0
 40
2.0
 40
2.0
 40
2.0
 40
2.0
 10
1.425925021701388
 20
-1.034476047092013
 30
0.0
 10
0.5164198133680556
 20
-0.9559278700086805
 30
0.0
 10
-0.2849093967013889
 20
-1.629788547092013
 30
0.0
 10
-0.3634575737847222
 20
-2.539293755425346
 30
0.0
 10
-0.4213351779513889
 20
-3.205575222439235
 30
0.0
 10
-0.0720024956597222
 20
-3.840850830078124
 30
0.0
 10
0.5212429470486111
 20
-4.14953138563368
 30
0.0
  0
LINE
  5
31D
100
AcDbEntity
  8
PEGA_345
 62
     7
100
AcDbLine
 10
-2.923853
 20
8.686894
 30
0.0
 11
-2.601392
 21
8.686205
 31
0.0
  0
LINE
  5
31C
100
AcDbEntity
  8
PEGA_345
 62
     7
100
AcDbLine
 10
-3.394453
 20
8.60559
 30
0.0
 11
-2.923853
 21
8.686894
 31
0.0
  0
LINE
  5
31B
100
AcDbEntity
  8
PEGA_345
 62
     7
100
AcDbLine
 10
-4.370104
 20
8.695163
 30
0.0
 11
-3.394453
 21
8.60559
 31
0.0
  0
LINE
  5
31A
100
AcDbEntity
  8
PEGA_345
 62
     7
100
AcDbLine
 10
-2.442228
 20
8.604212
 30
0.0
 11
-2.580721
 21
8.649687
 31
0.0
  0
SPLINE
  5
319
100
AcDbEntity
  8
PEGA_345
 62
     7
100
AcDbSpline
210
0.0
220
0.0
230
-1.0
 70
     8
 71
     3
 72
     8
 73
     4
 74
     0
 42
0.0000001
 43
0.0000001
 40
0.0
 40
0.0
 40
0.0
 40
0.0
 40
1.0
 40
1.0
 40
1.0
 40
1.0
 10
1.571997070312499
 20
4.109740532769096
 30
0.0
 10
1.856561957465277
 20
2.666934543185763
 30
0.0
 10
2.272040473090277
 20
1.253756374782986
 30
0.0
 10
2.814298502604166
 20
-0.1132575141059028
 30
0.0
  0
SPLINE
  5
318
100
AcDbEntity
  8
PEGA_345
 62
     7
100
AcDbSpline
210
0.0
220
0.0
230
-1.0
 70
     8
 71
     3
 72
     8
 73
     4
 74
     0
 42
0.0000001
 43
0.0000001
 40
0.0
 40
0.0
 40
0.0
 40
0.0
 40
1.0
 40
1.0
 40
1.0
 40
1.0
 10
2.309247504340277
 20
5.849513753255207
 30
0.0
 10
1.91650661892361
 20
6.70320841471354
 30
0.0
 10
1.192347547743055
 20
7.359154595269096
 30
0.0
 10
0.3042019314236111
 20
7.665079074435762
 30
0.0
  0
SPLINE
  5
317
100
AcDbEntity
  8
PEGA_345
 62
     7
100
AcDbSpline
210
0.0
220
0.0
230
-1.0
 70
     8
 71
     3
 72
     8
 73
     4
 74
     0
 42
0.0000001
 43
0.0000001
 40
0.0
 40
0.0
 40
0.0
 40
0.0
 40
1.0
 40
1.0
 40
1.0
 40
1.0
 10
-2.495282660590277
 20
8.652443440755208
 30
0.0
 10
-1.261938476562499
 20
7.032559543185763
 30
0.0
 10
0.0981852213541667
 20
5.513272433810763
 30
0.0
 10
1.571997070312499
 20
4.109740532769096
 30
0.0
  0
LINE
  5
316
100
AcDbEntity
  8
PEGA_345
 62
     7
100
AcDbLine
 10
-5.624118
 20
-8.61093
 30
0.0
 11
-5.534546
 21
-8.419383
 31
0.0
  0
LINE
  5
315
100
AcDbEntity
  8
PEGA_345
 62
     7
100
AcDbLine
 10
-5.584844
 20
-8.770093
 30
0.0
 11
-5.624118
 21
-8.61093
 31
0.0
  0
LINE
  5
314
100
AcDbEntity
  8
PEGA_345
 62
     7
100
AcDbLine
 10
-5.460821
 20
-8.851398
 30
0.0
 11
-5.584844
 21
-8.770093
 31
0.0
  0
LINE
  5
313
100
AcDbEntity
  8
PEGA_345
 62
     7
100
AcDbLine
 10
-5.56004
 20
-8.444187
 30
0.0
 11
-4.926831
 21
-8.275378
 31
0.0
  0
LINE
  5
312
100
AcDbEntity
  8
PEGA_345
 62
     7
100
AcDbLine
 10
-5.261694
 20
-8.841751
 30
0.0
 11
-5.460821
 21
-8.851398
 31
0.0
  0
LINE
  5
311
100
AcDbEntity
  8
PEGA_345
 62
     7
100
AcDbLine
 10
-5.357468
 20
-8.959574
 30
0.0
 11
-5.252048
 21
-8.833483
 31
0.0
  0
LINE
  5
310
100
AcDbEntity
  8
PEGA_345
 62
     7
100
AcDbLine
 10
-4.600925
 20
-10.075785
 30
0.0
 11
-4.341854
 21
-10.097833
 31
0.0
  0
LINE
  5
30F
100
AcDbEntity
  8
PEGA_345
 62
     7
100
AcDbLine
 10
-4.689119
 20
-9.931091
 30
0.0
 11
-4.600925
 21
-10.075785
 31
0.0
  0
SPLINE
  5
30E
100
AcDbEntity
  8
PEGA_345
 62
     7
100
AcDbSpline
210
0.0
220
0.0
230
1.0
 70
     8
 71
     3
 72
     8
 73
     4
 74
     0
 42
0.0000001
 43
0.0000001
 40
0.0
 40
0.0
 40
0.0
 40
0.0
 40
1.0
 40
1.0
 40
1.0
 40
1.0
 10
-4.341853841145832
 20
-10.09783325195312
 30
0.0
 10
-3.921552191840277
 20
-10.11299167209201
 30
0.0
 10
-3.501250542534721
 20
-10.06200425889756
 30
0.0
 10
-3.096796332465277
 20
-9.946249050564235
 30
0.0
  0
LINE
  5
30D
100
AcDbEntity
  8
PEGA_345
 62
     7
100
AcDbLine
 10
-4.650534
 20
-9.752635
 30
0.0
 11
-4.161331
 21
-9.663751
 31
0.0
  0
LINE
  5
30C
100
AcDbEntity
  8
PEGA_345
 62
     7
100
AcDbLine
 10
-5.223798
 20
-9.319931
 30
0.0
 11
-5.365736
 21
-9.191773
 31
0.0
  0
LINE
  5
30B
100
AcDbEntity
  8
PEGA_345
 62
     7
100
AcDbLine
 10
-5.015715
 20
-9.302016
 30
0.0
 11
-5.223798
 21
-9.319931
 31
0.0
  0
LINE
  5
30A
100
AcDbEntity
  8
PEGA_345
 62
     7
100
AcDbLine
 10
-5.023294
 20
-9.305461
 30
0.0
 11
-4.413512
 21
-9.196596
 31
0.0
  0
LINE
  5
309
100
AcDbEntity
  8
PEGA_345
 62
     7
100
AcDbLine
 10
-5.123201
 20
-9.493564
 30
0.0
 11
-5.023294
 21
-9.305461
 31
0.0
  0
LINE
  5
308
100
AcDbEntity
  8
PEGA_345
 62
     7
100
AcDbLine
 10
-5.077726
 20
-9.658239
 30
0.0
 11
-5.123201
 21
-9.493564
 31
0.0
  0
LINE
  5
307
100
AcDbEntity
  8
PEGA_345
 62
     7
100
AcDbLine
 10
-4.854484
 20
-9.725763
 30
0.0
 11
-5.077726
 21
-9.658239
 31
0.0
  0
LINE
  5
306
100
AcDbEntity
  8
PEGA_345
 62
     7
100
AcDbLine
 10
-4.650534
 20
-9.752635
 30
0.0
 11
-4.854484
 21
-9.725763
 31
0.0
  0
LINE
  5
305
100
AcDbEntity
  8
PEGA_345
 62
     7
100
AcDbLine
 10
-4.689119
 20
-9.931091
 30
0.0
 11
-4.650534
 21
-9.752635
 31
0.0
  0
LINE
  5
304
100
AcDbEntity
  8
PEGA_345
 62
     7
100
AcDbLine
 10
-5.252048
 20
-8.833483
 30
0.0
 11
-4.582322
 21
-8.776295
 31
0.0
  0
LINE
  5
303
100
AcDbEntity
  8
PEGA_345
 62
     7
100
AcDbLine
 10
-5.365736
 20
-9.191773
 30
0.0
 11
-5.357468
 21
-8.959574
 31
0.0
  0
LINE
  5
302
100
AcDbEntity
  8
PEGA_345
 62
     7
100
AcDbLine
 10
-3.975296
 20
-8.346347
 30
0.0
 11
-4.350811
 21
-7.954984
 31
0.0
  0
LINE
  5
301
100
AcDbEntity
  8
PEGA_345
 62
     7
100
AcDbLine
 10
-3.032029
 20
-8.585436
 30
0.0
 11
-2.798451
 21
-8.80799
 31
0.0
  0
LINE
  5
300
100
AcDbEntity
  8
PEGA_345
 62
     7
100
AcDbLine
 10
-3.315215
 20
-8.200964
 30
0.0
 11
-3.032029
 21
-8.585436
 31
0.0
  0
LINE
  5
2FF
100
AcDbEntity
  8
PEGA_345
 62
     7
100
AcDbLine
 10
-2.626885
 20
-8.858977
 30
0.0
 11
-2.758488
 21
-8.796276
 31
0.0
  0
LINE
  5
2FE
100
AcDbEntity
  8
PEGA_345
 62
     7
100
AcDbLine
 10
-2.626885
 20
-8.858977
 30
0.0
 11
-1.948201
 21
-8.763892
 31
0.0
  0
SPLINE
  5
2FD
100
AcDbEntity
  8
PEGA_345
 62
     7
100
AcDbSpline
210
0.0
220
0.0
230
1.0
 70
     8
 71
     3
 72
    14
 73
    10
 74
     0
 42
0.0000001
 43
0.0000001
 40
0.0
 40
0.0
 40
0.0
 40
0.0
 40
1.0
 40
1.0
 40
1.0
 40
2.0
 40
2.0
 40
2.0
 40
3.0
 40
3.0
 40
3.0
 40
3.0
 10
-3.924997287326388
 20
-7.713138156467013
 30
0.0
 10
-3.991143120659721
 20
-7.591870795355902
 30
0.0
 10
-4.14272732204861
 20
-7.547773573133679
 30
0.0
 10
-4.2633056640625
 20
-7.613230387369791
 30
0.0
 10
-4.38457302517361
 20
-7.679376220703124
 30
0.0
 10
-4.428670247395833
 20
-7.830960422092013
 30
0.0
 10
-4.362524414062499
 20
-7.952227783203124
 30
0.0
 10
-4.345987955729166
 20
-7.983233642578124
 30
0.0
 10
-4.32256130642361
 20
-8.01010538736979
 30
0.0
 10
-4.2943115234375
 20
-8.031464979383679
 30
0.0
  0
LINE
  5
2FC
100
AcDbEntity
  8
PEGA_345
 62
     7
100
AcDbLine
 10
-4.082094
 20
-7.591182
 30
0.0
 11
-3.315215
 21
-8.200964
 31
0.0
  0
LINE
  5
2FB
100
AcDbEntity
  8
PEGA_345
 62
     7
100
AcDbLine
 10
1.16961
 20
-4.662162
 30
0.0
 11
0.292489
 21
-4.005526
 31
0.0
  0
LINE
  5
2FA
100
AcDbEntity
  8
PEGA_345
 62
     7
100
AcDbLine
 10
1.454175
 20
-4.986001
 30
0.0
 11
1.519632
 21
-5.107957
 31
0.0
  0
LINE
  5
2F9
100
AcDbEntity
  8
PEGA_345
 62
     7
100
AcDbLine
 10
-3.645945
 20
-8.372529
 30
0.0
 11
-4.626419
 21
-8.28778
 31
0.0
  0
LINE
  5
2F8
100
AcDbEntity
  8
PEGA_345
 62
     7
100
AcDbLine
 10
-4.926831
 20
-8.275378
 30
0.0
 11
-4.376994
 21
-8.288469
 31
0.0
  0
SPLINE
  5
2F7
100
AcDbEntity
  8
PEGA_345
 62
     7
100
AcDbSpline
210
0.0
220
0.0
230
-1.0
 70
     8
 71
     3
 72
     8
 73
     4
 74
     0
 42
0.0000001
 43
0.0000001
 40
0.0
 40
0.0
 40
0.0
 40
0.0
 40
1.0
 40
1.0
 40
1.0
 40
1.0
 10
2.243790690104166
 20
-1.059280734592013
 30
0.0
 10
2.240345594618055
 20
-1.059280734592013
 30
0.0
 10
2.236900499131944
 20
-1.059969753689236
 30
0.0
 10
2.233455403645832
 20
-1.059969753689236
 30
0.0
  0
LINE
  5
2F6
100
AcDbEntity
  8
PEGA_345
 62
     7
100
AcDbLine
 10
2.632397
 20
-1.055147
 30
0.0
 11
2.471856
 21
-0.923544
 31
0.0
  0
LINE
  5
2F5
100
AcDbEntity
  8
PEGA_345
 62
     7
100
AcDbLine
 10
2.471856
 20
-0.923544
 30
0.0
 11
2.5883
 21
-0.848441
 31
0.0
  0
LINE
  5
2F4
100
AcDbEntity
  8
PEGA_345
 62
     7
100
AcDbLine
 10
2.491838
 20
-1.021385
 30
0.0
 11
1.273652
 21
-1.028964
 31
0.0
  0
LINE
  5
2F3
100
AcDbEntity
  8
PEGA_345
 62
     7
100
AcDbLine
 10
3.511586
 20
-1.040677
 30
0.0
 11
3.586
 21
-1.224645
 31
0.0
  0
LINE
  5
2F2
100
AcDbEntity
  8
PEGA_345
 62
     7
100
AcDbLine
 10
3.586
 20
-1.224645
 30
0.0
 11
3.437861
 21
-1.231536
 31
0.0
  0
LINE
  5
2F1
100
AcDbEntity
  8
PEGA_345
 62
     7
100
AcDbLine
 10
2.5883
 20
-0.848441
 30
0.0
 11
3.511586
 21
-1.040677
 31
0.0
  0
LINE
  5
2F0
100
AcDbEntity
  8
PEGA_345
 62
     7
100
AcDbLine
 10
-1.873787
 20
-10.173625
 30
0.0
 11
-2.70061
 21
-9.849097
 31
0.0
  0
LINE
  5
2EF
100
AcDbEntity
  8
PEGA_345
 62
     7
100
AcDbLine
 10
-1.086928
 20
-8.805233
 30
0.0
 11
0.111966
 21
-8.663985
 31
0.0
  0
LINE
  5
2EE
100
AcDbEntity
  8
PEGA_345
 62
     7
100
AcDbLine
 10
2.395375
 20
-5.392522
 30
0.0
 11
2.557294
 21
-5.329132
 31
0.0
  0
LINE
  5
2ED
100
AcDbEntity
  8
PEGA_345
 62
     7
100
AcDbLine
 10
2.557294
 20
-5.329132
 30
0.0
 11
2.426381
 21
-5.175481
 31
0.0
  0
LINE
  5
2EC
100
AcDbEntity
  8
PEGA_345
 62
     7
100
AcDbLine
 10
-2.70061
 20
-9.849097
 30
0.0
 11
-3.082327
 21
-9.961407
 31
0.0
  0
SPLINE
  5
2EB
100
AcDbEntity
  8
PEGA_345
 62
     7
100
AcDbSpline
210
0.0
220
0.0
230
-1.0
 70
     8
 71
     3
 72
    11
 73
     7
 74
     0
 42
0.0000001
 43
0.0000001
 40
0.0
 40
0.0
 40
0.0
 40
0.0
 40
1.0
 40
1.0
 40
1.0
 40
2.0
 40
2.0
 40
2.0
 40
2.0
 10
0.1781114366319444
 20
-6.706481255425346
 30
0.0
 10
-0.4220241970486111
 20
-7.453377956814235
 30
0.0
 10
-0.3035129123263889
 20
-8.545473225911457
 30
0.0
 10
0.4426947699652778
 20
-9.145608859592012
 30
0.0
 10
0.4778347439236111
 20
-9.173169623480902
 30
0.0
 10
0.5129747178819444
 20
-9.200041368272568
 30
0.0
 10
0.5494927300347223
 20
-9.224846055772568
 30
0.0
  0
SPLINE
  5
2EA
100
AcDbEntity
  8
PEGA_345
 62
     7
100
AcDbSpline
210
0.0
220
0.0
230
-1.0
 70
     8
 71
     3
 72
     8
 73
     4
 74
     0
 42
0.0000001
 43
0.0000001
 40
0.0
 40
0.0
 40
0.0
 40
0.0
 40
1.0
 40
1.0
 40
1.0
 40
1.0
 10
-0.0995632595486111
 20
-3.539060465494791
 30
0.0
 10
-0.4964382595486111
 20
-4.581546359592013
 30
0.0
 10
-0.3937744140625
 20
-5.748744710286457
 30
0.0
 10
0.1781114366319444
 20
-6.706481255425346
 30
0.0
  0
LINE
  5
2E9
100
AcDbEntity
  8
PEGA_345
 62
     7
100
AcDbLine
 10
1.680862
 20
-4.954306
 30
0.0
 11
1.454175
 21
-4.986001
 31
0.0
  0
LINE
  5
2E8
100
AcDbEntity
  8
PEGA_345
 62
     7
100
AcDbLine
 10
1.519632
 20
-5.107957
 30
0.0
 11
2.395375
 21
-5.392522
 31
0.0
  0
LINE
  5
2E7
100
AcDbEntity
  8
PEGA_345
 62
     7
100
AcDbLine
 10
-1.948201
 20
-8.763892
 30
0.0
 11
-1.086928
 21
-8.805233
 31
0.0
  0
SPLINE
  5
2E6
100
AcDbEntity
  8
PEGA_345
 62
     7
100
AcDbSpline
210
0.0
220
0.0
230
1.0
 70
     8
 71
     3
 72
     8
 73
     4
 74
     0
 42
0.0000001
 43
0.0000001
 40
0.0
 40
0.0
 40
0.0
 40
0.0
 40
1.0
 40
1.0
 40
1.0
 40
1.0
 10
5.613783094618055
 20
-0.2476162380642361
 30
0.0
 10
5.32715115017361
 20
1.266158718532985
 30
0.0
 10
4.791783311631943
 20
2.722745090060763
 30
0.0
 10
4.030417209201388
 20
4.062198215060763
 30
0.0
  0
ENDBLK
  5
33F
100
AcDbEntity
  8
PEGA_345
100
AcDbBlockEnd
  0
BLOCK
  5
342
100
AcDbEntity
  8
PEGA_345
 62
     7
100
AcDbBlockBegin
  2
AI9-BLK34
 70
     0
 10
0.0
 20
0.0
 30
0.0
  3
AI9-BLK34
  1

  0
POLYLINE
  5
34A
100
AcDbEntity
  8
PEGA_345
 62
     7
100
AcDb2dPolyline
 66
     1
 10
0.0
 20
0.0
 30
0.0
  0
VERTEX
  5
34B
100
AcDbEntity
  8
PEGA_345
 62
     7
100
AcDbVertex
100
AcDb2dVertex
 10
15.440229
 20
-2.795523
 30
0.0
  0
VERTEX
  5
34C
100
AcDbEntity
  8
PEGA_345
 62
     7
100
AcDbVertex
100
AcDb2dVertex
 10
4.842426
 20
1.058333
 30
0.0
  0
VERTEX
  5
34D
100
AcDbEntity
  8
PEGA_345
 62
     7
100
AcDbVertex
100
AcDb2dVertex
 10
3.035818
 20
0.937927
 30
0.0
  0
SEQEND
  5
34E
100
AcDbEntity
  8
PEGA_345
 62
     7
  0
POLYLINE
  5
345
100
AcDbEntity
  8
PEGA_345
 62
     7
100
AcDb2dPolyline
 66
     1
 10
0.0
 20
0.0
 30
0.0
 70
     1
  0
VERTEX
  5
346
100
AcDbEntity
  8
PEGA_345
 62
     7
100
AcDbVertex
100
AcDb2dVertex
 10
14.011548
 20
-1.761133
 30
0.0
  0
VERTEX
  5
347
100
AcDbEntity
  8
PEGA_345
 62
     7
100
AcDbVertex
100
AcDb2dVertex
 10
15.440229
 20
-2.795523
 30
0.0
  0
VERTEX
  5
348
100
AcDbEntity
  8
PEGA_345
 62
     7
100
AcDbVertex
100
AcDb2dVertex
 10
13.677718
 20
-2.736784
 30
0.0
  0
SEQEND
  5
349
100
AcDbEntity
  8
PEGA_345
 62
     7
  0
HATCH
  5
344
100
AcDbEntity
  8
PEGA_345
 62
     7
100
AcDbHatch
 10
0.0
 20
0.0
 30
0.0
210
0.0
220
0.0
230
1.0
  2
SOLID
 70
     1
 71
     0
 91
        1
 92
        3
 72
     0
 73
     1
 93
        3
 10
14.0115478515625
 20
-1.761132812499999
 10
15.44022894965277
 20
-2.79552273220486
 10
13.67771809895833
 20
-2.736783854166666
 97
        0
 75
     0
 76
     1
 98
        1
 10
0.0
 20
0.0
  0
MTEXT
  5
343
100
AcDbEntity
  8
PEGA_345
 62
     7
100
AcDbMText
 10
-15.528423
 20
2.453507
 30
0.0
 40
2.099868
 41
0.0
 71
     1
 72
     2
  1
\fArial|b0|i0;Power Supply
  7
STD
 11
1.000001
 21
0.0
 31
0.0
  0
ENDBLK
  5
34F
100
AcDbEntity
  8
PEGA_345
100
AcDbBlockEnd
  0
BLOCK
  5
353
100
AcDbEntity
  8
PEGA_345
 62
     7
100
AcDbBlockBegin
  2
AI9-BLK35
 70
     0
 10
0.0
 20
0.0
 30
0.0
  3
AI9-BLK35
  1

  0
INSERT
  5
35F
100
AcDbEntity
  8
PEGA_345
 62
     7
100
AcDbBlockReference
  2
AI9-BLK37
 10
0.0
 20
1.904879
 30
0.0
  0
INSERT
  5
355
100
AcDbEntity
  8
PEGA_345
 62
     7
100
AcDbBlockReference
  2
AI9-BLK36
 10
-0.000258
 20
-1.446423
 30
0.0
  0
ENDBLK
  5
368
100
AcDbEntity
  8
PEGA_345
100
AcDbBlockEnd
  0
BLOCK
  5
356
100
AcDbEntity
  8
PEGA_345
 62
     7
100
AcDbBlockBegin
  2
AI9-BLK36
 70
     0
 10
0.0
 20
0.0
 30
0.0
  3
AI9-BLK36
  1

  0
POLYLINE
  5
357
100
AcDbEntity
  8
PEGA_345
 62
     7
100
AcDb2dPolyline
 66
     1
 10
0.0
 20
0.0
 30
0.0
 70
     1
  0
VERTEX
  5
358
100
AcDbEntity
  8
PEGA_345
 62
     7
100
AcDbVertex
100
AcDb2dVertex
 10
0.952569
 20
1.904879
 30
0.0
  0
VERTEX
  5
359
100
AcDbEntity
  8
PEGA_345
 62
     7
100
AcDbVertex
100
AcDb2dVertex
 10
0.952569
 20
-1.904879
 30
0.0
  0
VERTEX
  5
35A
100
AcDbEntity
  8
PEGA_345
 62
     7
100
AcDbVertex
100
AcDb2dVertex
 10
-0.952569
 20
-1.904879
 30
0.0
  0
VERTEX
  5
35B
100
AcDbEntity
  8
PEGA_345
 62
     7
100
AcDbVertex
100
AcDb2dVertex
 10
-0.952569
 20
1.904879
 30
0.0
  0
SEQEND
  5
35C
100
AcDbEntity
  8
PEGA_345
 62
     7
  0
ENDBLK
  5
35D
100
AcDbEntity
  8
PEGA_345
100
AcDbBlockEnd
  0
BLOCK
  5
360
100
AcDbEntity
  8
PEGA_345
 62
     7
100
AcDbBlockBegin
  2
AI9-BLK37
 70
     0
 10
0.0
 20
0.0
 30
0.0
  3
AI9-BLK37
  1

  0
POLYLINE
  5
361
100
AcDbEntity
  8
PEGA_345
 62
     7
100
AcDb2dPolyline
 66
     1
 10
0.0
 20
0.0
 30
0.0
 70
     1
  0
VERTEX
  5
362
100
AcDbEntity
  8
PEGA_345
 62
     7
100
AcDbVertex
100
AcDb2dVertex
 10
-1.905224
 20
1.446423
 30
0.0
  0
VERTEX
  5
363
100
AcDbEntity
  8
PEGA_345
 62
     7
100
AcDbVertex
100
AcDb2dVertex
 10
1.905224
 20
1.446423
 30
0.0
  0
VERTEX
  5
364
100
AcDbEntity
  8
PEGA_345
 62
     7
100
AcDbVertex
100
AcDb2dVertex
 10
1.905224
 20
-1.446423
 30
0.0
  0
VERTEX
  5
365
100
AcDbEntity
  8
PEGA_345
 62
     7
100
AcDbVertex
100
AcDb2dVertex
 10
-1.905224
 20
-1.446423
 30
0.0
  0
SEQEND
  5
366
100
AcDbEntity
  8
PEGA_345
 62
     7
  0
ENDBLK
  5
367
100
AcDbEntity
  8
PEGA_345
100
AcDbBlockEnd
  0
BLOCK
  5
36B
100
AcDbEntity
  8
PEGA_345
 62
     7
100
AcDbBlockBegin
  2
AI9-BLK38
 70
     0
 10
0.0
 20
0.0
 30
0.0
  3
AI9-BLK38
  1

  0
INSERT
  5
377
100
AcDbEntity
  8
PEGA_345
 62
     7
100
AcDbBlockReference
  2
AI9-BLK40
 10
0.0
 20
1.904879
 30
0.0
  0
INSERT
  5
36D
100
AcDbEntity
  8
PEGA_345
 62
     7
100
AcDbBlockReference
  2
AI9-BLK39
 10
0.0
 20
-1.446423
 30
0.0
  0
ENDBLK
  5
380
100
AcDbEntity
  8
PEGA_345
100
AcDbBlockEnd
  0
BLOCK
  5
36E
100
AcDbEntity
  8
PEGA_345
 62
     7
100
AcDbBlockBegin
  2
AI9-BLK39
 70
     0
 10
0.0
 20
0.0
 30
0.0
  3
AI9-BLK39
  1

  0
POLYLINE
  5
36F
100
AcDbEntity
  8
PEGA_345
 62
     7
100
AcDb2dPolyline
 66
     1
 10
0.0
 20
0.0
 30
0.0
 70
     1
  0
VERTEX
  5
370
100
AcDbEntity
  8
PEGA_345
 62
     7
100
AcDbVertex
100
AcDb2dVertex
 10
0.952569
 20
1.904879
 30
0.0
  0
VERTEX
  5
371
100
AcDbEntity
  8
PEGA_345
 62
     7
100
AcDbVertex
100
AcDb2dVertex
 10
0.952569
 20
-1.904879
 30
0.0
  0
VERTEX
  5
372
100
AcDbEntity
  8
PEGA_345
 62
     7
100
AcDbVertex
100
AcDb2dVertex
 10
-0.952569
 20
-1.904879
 30
0.0
  0
VERTEX
  5
373
100
AcDbEntity
  8
PEGA_345
 62
     7
100
AcDbVertex
100
AcDb2dVertex
 10
-0.952569
 20
1.904879
 30
0.0
  0
SEQEND
  5
374
100
AcDbEntity
  8
PEGA_345
 62
     7
  0
ENDBLK
  5
375
100
AcDbEntity
  8
PEGA_345
100
AcDbBlockEnd
  0
BLOCK
  5
378
100
AcDbEntity
  8
PEGA_345
 62
     7
100
AcDbBlockBegin
  2
AI9-BLK40
 70
     0
 10
0.0
 20
0.0
 30
0.0
  3
AI9-BLK40
  1

  0
POLYLINE
  5
379
100
AcDbEntity
  8
PEGA_345
 62
     7
100
AcDb2dPolyline
 66
     1
 10
0.0
 20
0.0
 30
0.0
 70
     1
  0
VERTEX
  5
37A
100
AcDbEntity
  8
PEGA_345
 62
     7
100
AcDbVertex
100
AcDb2dVertex
 10
-1.904793
 20
1.446423
 30
0.0
  0
VERTEX
  5
37B
100
AcDbEntity
  8
PEGA_345
 62
     7
100
AcDbVertex
100
AcDb2dVertex
 10
1.904793
 20
1.446423
 30
0.0
  0
VERTEX
  5
37C
100
AcDbEntity
  8
PEGA_345
 62
     7
100
AcDbVertex
100
AcDb2dVertex
 10
1.904793
 20
-1.446423
 30
0.0
  0
VERTEX
  5
37D
100
AcDbEntity
  8
PEGA_345
 62
     7
100
AcDbVertex
100
AcDb2dVertex
 10
-1.904793
 20
-1.446423
 30
0.0
  0
SEQEND
  5
37E
100
AcDbEntity
  8
PEGA_345
 62
     7
  0
ENDBLK
  5
37F
100
AcDbEntity
  8
PEGA_345
100
AcDbBlockEnd
  0
BLOCK
  5
391
100
AcDbEntity
  8
PEGA_345
 62
     7
100
AcDbBlockBegin
  2
AI9-BLK41
 70
     0
 10
0.0
 20
0.0
 30
0.0
  3
AI9-BLK41
  1

  0
INSERT
  5
395
100
AcDbEntity
  8
PEGA_345
 62
     7
100
AcDbBlockReference
  2
AI9-BLK42
 10
0.0
 20
0.0
 30
0.0
  0
LINE
  5
393
100
AcDbEntity
  8
PEGA_345
 62
     7
100
AcDbLine
 10
-1.5875
 20
1.5875
 30
0.0
 11
1.5875
 21
-1.5875
 31
0.0
  0
LINE
  5
392
100
AcDbEntity
  8
PEGA_345
 62
     7
100
AcDbLine
 10
1.5875
 20
1.5875
 30
0.0
 11
-1.5875
 21
-1.5875
 31
0.0
  0
ENDBLK
  5
39E
100
AcDbEntity
  8
PEGA_345
100
AcDbBlockEnd
  0
BLOCK
  5
396
100
AcDbEntity
  8
PEGA_345
 62
     7
100
AcDbBlockBegin
  2
AI9-BLK42
 70
     0
 10
0.0
 20
0.0
 30
0.0
  3
AI9-BLK42
  1

  0
POLYLINE
  5
397
100
AcDbEntity
  8
PEGA_345
 62
     7
100
AcDb2dPolyline
 66
     1
 10
0.0
 20
0.0
 30
0.0
 70
     1
  0
VERTEX
  5
398
100
AcDbEntity
  8
PEGA_345
 62
     7
100
AcDbVertex
100
AcDb2dVertex
 10
-1.5875
 20
1.5875
 30
0.0
  0
VERTEX
  5
399
100
AcDbEntity
  8
PEGA_345
 62
     7
100
AcDbVertex
100
AcDb2dVertex
 10
1.5875
 20
1.5875
 30
0.0
  0
VERTEX
  5
39A
100
AcDbEntity
  8
PEGA_345
 62
     7
100
AcDbVertex
100
AcDb2dVertex
 10
1.5875
 20
-1.5875
 30
0.0
  0
VERTEX
  5
39B
100
AcDbEntity
  8
PEGA_345
 62
     7
100
AcDbVertex
100
AcDb2dVertex
 10
-1.5875
 20
-1.5875
 30
0.0
  0
SEQEND
  5
39C
100
AcDbEntity
  8
PEGA_345
 62
     7
  0
ENDBLK
  5
39D
100
AcDbEntity
  8
PEGA_345
100
AcDbBlockEnd
  0
BLOCK
  5
3A2
100
AcDbEntity
  8
PEGA_345
  6
AI9-LTYPE2
 62
     7
100
AcDbBlockBegin
  2
AI9-BLK43
 70
     0
 10
0.0
 20
0.0
 30
0.0
  3
AI9-BLK43
  1

  0
CIRCLE
  5
3A3
100
AcDbEntity
  8
PEGA_345
 62
     7
100
AcDbCircle
 10
0.0
 20
-0.000345
 30
0.0
 40
12.625241
  0
ENDBLK
  5
3A4
100
AcDbEntity
  8
PEGA_345
100
AcDbBlockEnd
  0
BLOCK
  5
425
100
AcDbEntity
  8
PEGA_345
 62
     7
100
AcDbBlockBegin
  2
AI9-BLK44
 70
     0
 10
0.0
 20
0.0
 30
0.0
  3
AI9-BLK44
  1

  0
MTEXT
  5
435
100
AcDbEntity
  8
PEGA_345
 62
     7
100
AcDbMText
 10
-49.101305
 20
-20.587804
 30
0.0
 40
2.099868
 41
0.0
 71
     1
 72
     2
  1
\fArial|b0|i0;162.52" Pega 345 Queen Length
  7
STD
 11
0.0
 21
1.0
 31
0.0
  0
LINE
  5
434
100
AcDbEntity
  8
PEGA_345
 62
     7
100
AcDbLine
 10
49.531516
 20
51.601243
 30
0.0
 11
-47.706993
 21
51.601243
 31
0.0
  0
LINE
  5
433
100
AcDbEntity
  8
PEGA_345
 62
     7
100
AcDbLine
 10
35.596794
 20
-51.601243
 30
0.0
 11
-47.706993
 21
-51.601243
 31
0.0
  0
LINE
  5
432
100
AcDbEntity
  8
PEGA_345
 62
     7
100
AcDbLine
 10
-45.943104
 20
51.601243
 30
0.0
 11
-45.943104
 21
-51.601243
 31
0.0
  0
POLYLINE
  5
42D
100
AcDbEntity
  8
PEGA_345
 62
     7
100
AcDb2dPolyline
 66
     1
 10
0.0
 20
0.0
 30
0.0
 70
     1
  0
VERTEX
  5
42E
100
AcDbEntity
  8
PEGA_345
 62
     7
100
AcDbVertex
100
AcDb2dVertex
 10
-46.458835
 20
49.914352
 30
0.0
  0
VERTEX
  5
42F
100
AcDbEntity
  8
PEGA_345
 62
     7
100
AcDbVertex
100
AcDb2dVertex
 10
-45.943104
 20
51.601243
 30
0.0
  0
VERTEX
  5
430
100
AcDbEntity
  8
PEGA_345
 62
     7
100
AcDbVertex
100
AcDb2dVertex
 10
-45.427374
 20
49.914352
 30
0.0
  0
SEQEND
  5
431
100
AcDbEntity
  8
PEGA_345
 62
     7
  0
HATCH
  5
42C
100
AcDbEntity
  8
PEGA_345
 62
     7
100
AcDbHatch
 10
0.0
 20
0.0
 30
0.0
210
0.0
220
0.0
230
1.0
  2
SOLID
 70
     1
 71
     0
 91
        1
 92
        3
 72
     0
 73
     1
 93
        3
 10
-46.45883517795138
 20
49.91435207790798
 10
-45.94310438368054
 20
51.60124308268229
 10
-45.42737358940971
 20
49.91435207790798
 97
        0
 75
     0
 76
     1
 98
        1
 10
0.0
 20
0.0
  0
POLYLINE
  5
427
100
AcDbEntity
  8
PEGA_345
 62
     7
100
AcDb2dPolyline
 66
     1
 10
0.0
 20
0.0
 30
0.0
 70
     1
  0
VERTEX
  5
428
100
AcDbEntity
  8
PEGA_345
 62
     7
100
AcDbVertex
100
AcDb2dVertex
 10
-45.427374
 20
-49.914524
 30
0.0
  0
VERTEX
  5
429
100
AcDbEntity
  8
PEGA_345
 62
     7
100
AcDbVertex
100
AcDb2dVertex
 10
-45.943104
 20
-51.601243
 30
0.0
  0
VERTEX
  5
42A
100
AcDbEntity
  8
PEGA_345
 62
     7
100
AcDbVertex
100
AcDb2dVertex
 10
-46.458835
 20
-49.914524
 30
0.0
  0
SEQEND
  5
42B
100
AcDbEntity
  8
PEGA_345
 62
     7
  0
HATCH
  5
426
100
AcDbEntity
  8
PEGA_345
 62
     7
100
AcDbHatch
 10
0.0
 20
0.0
 30
0.0
210
0.0
220
0.0
230
1.0
  2
SOLID
 70
     1
 71
     0
 91
        1
 92
        3
 72
     0
 73
     1
 93
        3
 10
-45.42737358940971
 20
-49.91452433268229
 10
-45.94310438368054
 20
-51.60124308268229
 10
-46.45883517795138
 20
-49.91452433268229
 97
        0
 75
     0
 76
     1
 98
        1
 10
0.0
 20
0.0
  0
ENDBLK
  5
436
100
AcDbEntity
  8
PEGA_345
100
AcDbBlockEnd
  0
BLOCK
  5
439
100
AcDbEntity
  8
PEGA_345
 62
     7
100
AcDbBlockBegin
  2
AI9-BLK45
 70
     0
 10
0.0
 20
0.0
 30
0.0
  3
AI9-BLK45
  1

  0
MTEXT
  5
44A
100
AcDbEntity
  8
PEGA_345
 62
     7
100
AcDbMText
 10
-37.968307
 20
-4.03214
 30
0.0
 40
2.099868
 41
0.0
 71
     1
 72
     2
  1
\fArial|b0|i0;24.05"
  7
STD
 11
0.0
 21
1.0
 31
0.0
  0
LINE
  5
449
100
AcDbEntity
  8
PEGA_345
 62
     7
100
AcDbLine
 10
-6.717764
 20
7.636054
 30
0.0
 11
-38.337884
 21
7.636054
 31
0.0
  0
LINE
  5
448
100
AcDbEntity
  8
PEGA_345
 62
     7
100
AcDbLine
 10
38.398518
 20
-7.636054
 30
0.0
 11
-38.337884
 21
-7.636054
 31
0.0
  0
LINE
  5
447
100
AcDbEntity
  8
PEGA_345
 62
     7
100
AcDbLine
 10
-36.573995
 20
7.636054
 30
0.0
 11
-36.573995
 21
4.108276
 31
0.0
  0
LINE
  5
446
100
AcDbEntity
  8
PEGA_345
 62
     7
100
AcDbLine
 10
-36.573995
 20
-7.636054
 30
0.0
 11
-36.573995
 21
-4.108276
 31
0.0
  0
POLYLINE
  5
441
100
AcDbEntity
  8
PEGA_345
 62
     7
100
AcDb2dPolyline
 66
     1
 10
0.0
 20
0.0
 30
0.0
 70
     1
  0
VERTEX
  5
442
100
AcDbEntity
  8
PEGA_345
 62
     7
100
AcDbVertex
100
AcDb2dVertex
 10
-37.089381
 20
5.949335
 30
0.0
  0
VERTEX
  5
443
100
AcDbEntity
  8
PEGA_345
 62
     7
100
AcDbVertex
100
AcDb2dVertex
 10
-36.573995
 20
7.636054
 30
0.0
  0
VERTEX
  5
444
100
AcDbEntity
  8
PEGA_345
 62
     7
100
AcDbVertex
100
AcDb2dVertex
 10
-36.05792
 20
5.949335
 30
0.0
  0
SEQEND
  5
445
100
AcDbEntity
  8
PEGA_345
 62
     7
  0
HATCH
  5
440
100
AcDbEntity
  8
PEGA_345
 62
     7
100
AcDbHatch
 10
0.0
 20
0.0
 30
0.0
210
0.0
220
0.0
230
1.0
  2
SOLID
 70
     1
 71
     0
 91
        1
 92
        3
 72
     0
 73
     1
 93
        3
 10
-37.0893812391493
 20
5.949335394965276
 10
-36.57399495442708
 20
7.636054144965276
 10
-36.05791965060763
 20
5.949335394965276
 97
        0
 75
     0
 76
     1
 98
        1
 10
0.0
 20
0.0
  0
POLYLINE
  5
43B
100
AcDbEntity
  8
PEGA_345
 62
     7
100
AcDb2dPolyline
 66
     1
 10
0.0
 20
0.0
 30
0.0
 70
     1
  0
VERTEX
  5
43C
100
AcDbEntity
  8
PEGA_345
 62
     7
100
AcDbVertex
100
AcDb2dVertex
 10
-36.05792
 20
-5.949335
 30
0.0
  0
VERTEX
  5
43D
100
AcDbEntity
  8
PEGA_345
 62
     7
100
AcDbVertex
100
AcDb2dVertex
 10
-36.573995
 20
-7.636054
 30
0.0
  0
VERTEX
  5
43E
100
AcDbEntity
  8
PEGA_345
 62
     7
100
AcDbVertex
100
AcDb2dVertex
 10
-37.089381
 20
-5.949335
 30
0.0
  0
SEQEND
  5
43F
100
AcDbEntity
  8
PEGA_345
 62
     7
  0
HATCH
  5
43A
100
AcDbEntity
  8
PEGA_345
 62
     7
100
AcDbHatch
 10
0.0
 20
0.0
 30
0.0
210
0.0
220
0.0
230
1.0
  2
SOLID
 70
     1
 71
     0
 91
        1
 92
        3
 72
     0
 73
     1
 93
        3
 10
-36.05791965060763
 20
-5.949335394965276
 10
-36.57399495442708
 20
-7.636054144965276
 10
-37.0893812391493
 20
-5.949335394965276
 97
        0
 75
     0
 76
     1
 98
        1
 10
0.0
 20
0.0
  0
ENDBLK
  5
44B
100
AcDbEntity
  8
PEGA_345
100
AcDbBlockEnd
  0
BLOCK
  5
44E
100
AcDbEntity
  8
PEGA_345
 62
     7
100
AcDbBlockBegin
  2
AI9-BLK46
 70
     0
 10
0.0
 20
0.0
 30
0.0
  3
AI9-BLK46
  1

  0
MTEXT
  5
45E
100
AcDbEntity
  8
PEGA_345
 62
     7
100
AcDbMText
 10
-46.1306
 20
-4.032054
 30
0.0
 40
2.099868
 41
0.0
 71
     1
 72
     2
  1
\fArial|b0|i0;58.47"
  7
STD
 11
0.0
 21
1.0
 31
0.0
  0
LINE
  5
45D
100
AcDbEntity
  8
PEGA_345
 62
     7
100
AcDbLine
 10
46.56081
 20
18.565189
 30
0.0
 11
-44.736287
 21
18.565189
 31
0.0
  0
LINE
  5
45C
100
AcDbEntity
  8
PEGA_345
 62
     7
100
AcDbLine
 10
-13.116168
 20
-18.565189
 30
0.0
 11
-44.736287
 21
-18.565189
 31
0.0
  0
LINE
  5
45B
100
AcDbEntity
  8
PEGA_345
 62
     7
100
AcDbLine
 10
-42.972399
 20
18.565189
 30
0.0
 11
-42.972399
 21
-18.565189
 31
0.0
  0
POLYLINE
  5
456
100
AcDbEntity
  8
PEGA_345
 62
     7
100
AcDb2dPolyline
 66
     1
 10
0.0
 20
0.0
 30
0.0
 70
     1
  0
VERTEX
  5
457
100
AcDbEntity
  8
PEGA_345
 62
     7
100
AcDbVertex
100
AcDb2dVertex
 10
-43.488129
 20
16.878298
 30
0.0
  0
VERTEX
  5
458
100
AcDbEntity
  8
PEGA_345
 62
     7
100
AcDbVertex
100
AcDb2dVertex
 10
-42.972399
 20
18.565189
 30
0.0
  0
VERTEX
  5
459
100
AcDbEntity
  8
PEGA_345
 62
     7
100
AcDbVertex
100
AcDb2dVertex
 10
-42.456668
 20
16.878298
 30
0.0
  0
SEQEND
  5
45A
100
AcDbEntity
  8
PEGA_345
 62
     7
  0
HATCH
  5
455
100
AcDbEntity
  8
PEGA_345
 62
     7
100
AcDbHatch
 10
0.0
 20
0.0
 30
0.0
210
0.0
220
0.0
230
1.0
  2
SOLID
 70
     1
 71
     0
 91
        1
 92
        3
 72
     0
 73
     1
 93
        3
 10
-43.48812934027777
 20
16.8782979329427
 10
-42.97239854600694
 20
18.56518893771701
 10
-42.4566677517361
 20
16.8782979329427
 97
        0
 75
     0
 76
     1
 98
        1
 10
0.0
 20
0.0
  0
POLYLINE
  5
450
100
AcDbEntity
  8
PEGA_345
 62
     7
100
AcDb2dPolyline
 66
     1
 10
0.0
 20
0.0
 30
0.0
 70
     1
  0
VERTEX
  5
451
100
AcDbEntity
  8
PEGA_345
 62
     7
100
AcDbVertex
100
AcDb2dVertex
 10
-42.456668
 20
-16.878298
 30
0.0
  0
VERTEX
  5
452
100
AcDbEntity
  8
PEGA_345
 62
     7
100
AcDbVertex
100
AcDb2dVertex
 10
-42.972399
 20
-18.565189
 30
0.0
  0
VERTEX
  5
453
100
AcDbEntity
  8
PEGA_345
 62
     7
100
AcDbVertex
100
AcDb2dVertex
 10
-43.488129
 20
-16.878298
 30
0.0
  0
SEQEND
  5
454
100
AcDbEntity
  8
PEGA_345
 62
     7
  0
HATCH
  5
44F
100
AcDbEntity
  8
PEGA_345
 62
     7
100
AcDbHatch
 10
0.0
 20
0.0
 30
0.0
210
0.0
220
0.0
230
1.0
  2
SOLID
 70
     1
 71
     0
 91
        1
 92
        3
 72
     0
 73
     1
 93
        3
 10
-42.4566677517361
 20
-16.8782979329427
 10
-42.97239854600694
 20
-18.56518893771701
 10
-43.48812934027777
 20
-16.8782979329427
 97
        0
 75
     0
 76
     1
 98
        1
 10
0.0
 20
0.0
  0
ENDBLK
  5
45F
100
AcDbEntity
  8
PEGA_345
100
AcDbBlockEnd
  0
BLOCK
  5
462
100
AcDbEntity
  8
PEGA_345
 62
     7
100
AcDbBlockBegin
  2
AI9-BLK47
 70
     0
 10
0.0
 20
0.0
 30
0.0
  3
AI9-BLK47
  1

  0
MTEXT
  5
472
100
AcDbEntity
  8
PEGA_345
 62
     7
100
AcDbMText
 10
-16.448346
 20
-23.980621
 30
0.0
 40
2.099868
 41
0.0
 71
     1
 72
     2
  1
\fArial|b0|i0;80" Maximum Travel Area 40" Material
  7
STD
 11
0.0
 21
1.0
 31
0.0
  0
LINE
  5
471
100
AcDbEntity
  8
PEGA_345
 62
     7
100
AcDbLine
 10
16.525779
 20
25.4
 30
0.0
 11
-15.054034
 21
25.4
 31
0.0
  0
LINE
  5
470
100
AcDbEntity
  8
PEGA_345
 62
     7
100
AcDbLine
 10
16.878556
 20
-25.4
 30
0.0
 11
-15.054034
 21
-25.4
 31
0.0
  0
LINE
  5
46F
100
AcDbEntity
  8
PEGA_345
 62
     7
100
AcDbLine
 10
-13.290145
 20
25.4
 30
0.0
 11
-13.290145
 21
-25.4
 31
0.0
  0
POLYLINE
  5
46A
100
AcDbEntity
  8
PEGA_345
 62
     7
100
AcDb2dPolyline
 66
     1
 10
0.0
 20
0.0
 30
0.0
 70
     1
  0
VERTEX
  5
46B
100
AcDbEntity
  8
PEGA_345
 62
     7
100
AcDbVertex
100
AcDb2dVertex
 10
-13.805531
 20
23.713109
 30
0.0
  0
VERTEX
  5
46C
100
AcDbEntity
  8
PEGA_345
 62
     7
100
AcDbVertex
100
AcDb2dVertex
 10
-13.290145
 20
25.4
 30
0.0
  0
VERTEX
  5
46D
100
AcDbEntity
  8
PEGA_345
 62
     7
100
AcDbVertex
100
AcDb2dVertex
 10
-12.77407
 20
23.713109
 30
0.0
  0
SEQEND
  5
46E
100
AcDbEntity
  8
PEGA_345
 62
     7
  0
HATCH
  5
469
100
AcDbEntity
  8
PEGA_345
 62
     7
100
AcDbHatch
 10
0.0
 20
0.0
 30
0.0
210
0.0
220
0.0
230
1.0
  2
SOLID
 70
     1
 71
     0
 91
        1
 92
        3
 72
     0
 73
     1
 93
        3
 10
-13.80553114149305
 20
23.71310899522569
 10
-13.29014485677083
 20
25.4
 10
-12.77406955295139
 20
23.71310899522569
 97
        0
 75
     0
 76
     1
 98
        1
 10
0.0
 20
0.0
  0
POLYLINE
  5
464
100
AcDbEntity
  8
PEGA_345
 62
     7
100
AcDb2dPolyline
 66
     1
 10
0.0
 20
0.0
 30
0.0
 70
     1
  0
VERTEX
  5
465
100
AcDbEntity
  8
PEGA_345
 62
     7
100
AcDbVertex
100
AcDb2dVertex
 10
-12.77407
 20
-23.713281
 30
0.0
  0
VERTEX
  5
466
100
AcDbEntity
  8
PEGA_345
 62
     7
100
AcDbVertex
100
AcDb2dVertex
 10
-13.290145
 20
-25.4
 30
0.0
  0
VERTEX
  5
467
100
AcDbEntity
  8
PEGA_345
 62
     7
100
AcDbVertex
100
AcDb2dVertex
 10
-13.805531
 20
-23.713281
 30
0.0
  0
SEQEND
  5
468
100
AcDbEntity
  8
PEGA_345
 62
     7
  0
HATCH
  5
463
100
AcDbEntity
  8
PEGA_345
 62
     7
100
AcDbHatch
 10
0.0
 20
0.0
 30
0.0
210
0.0
220
0.0
230
1.0
  2
SOLID
 70
     1
 71
     0
 91
        1
 92
        3
 72
     0
 73
     1
 93
        3
 10
-12.77406955295139
 20
-23.71328124999999
 10
-13.29014485677083
 20
-25.4
 10
-13.80553114149305
 20
-23.71328124999999
 97
        0
 75
     0
 76
     1
 98
        1
 10
0.0
 20
0.0
  0
ENDBLK
  5
473
100
AcDbEntity
  8
PEGA_345
100
AcDbBlockEnd
  0
BLOCK
  5
476
100
AcDbEntity
  8
PEGA_345
 62
     7
100
AcDbBlockBegin
  2
AI9-BLK48
 70
     0
 10
0.0
 20
0.0
 30
0.0
  3
AI9-BLK48
  1

  0
MTEXT
  5
486
100
AcDbEntity
  8
PEGA_345
 62
     7
100
AcDbMText
 10
-25.550465
 20
-24.288702
 30
0.0
 40
2.099868
 41
0.0
 71
     1
 72
     2
  1
\fArial|b0|i0;200" Maximum Travel Area 100" Material
  7
STD
 11
1.000001
 21
0.0
 31
0.0
  0
LINE
  5
485
100
AcDbEntity
  8
PEGA_345
 62
     7
100
AcDbLine
 10
-63.499914
 20
28.740192
 30
0.0
 11
-63.499914
 21
-29.210792
 31
0.0
  0
LINE
  5
484
100
AcDbEntity
  8
PEGA_345
 62
     7
100
AcDbLine
 10
63.499914
 20
29.210792
 30
0.0
 11
63.499914
 21
-29.210792
 31
0.0
  0
LINE
  5
483
100
AcDbEntity
  8
PEGA_345
 62
     7
100
AcDbLine
 10
-63.499914
 20
-27.446903
 30
0.0
 11
63.499914
 21
-27.446903
 31
0.0
  0
POLYLINE
  5
47E
100
AcDbEntity
  8
PEGA_345
 62
     7
100
AcDb2dPolyline
 66
     1
 10
0.0
 20
0.0
 30
0.0
 70
     1
  0
VERTEX
  5
47F
100
AcDbEntity
  8
PEGA_345
 62
     7
100
AcDbVertex
100
AcDb2dVertex
 10
-61.813195
 20
-27.962634
 30
0.0
  0
VERTEX
  5
480
100
AcDbEntity
  8
PEGA_345
 62
     7
100
AcDbVertex
100
AcDb2dVertex
 10
-63.499914
 20
-27.446903
 30
0.0
  0
VERTEX
  5
481
100
AcDbEntity
  8
PEGA_345
 62
     7
100
AcDbVertex
100
AcDb2dVertex
 10
-61.813195
 20
-26.931173
 30
0.0
  0
SEQEND
  5
482
100
AcDbEntity
  8
PEGA_345
 62
     7
  0
HATCH
  5
47D
100
AcDbEntity
  8
PEGA_345
 62
     7
100
AcDbHatch
 10
0.0
 20
0.0
 30
0.0
210
0.0
220
0.0
230
1.0
  2
SOLID
 70
     1
 71
     0
 91
        1
 92
        3
 72
     0
 73
     1
 93
        3
 10
-61.81319512261284
 20
-27.96263427734374
 10
-63.49991387261284
 20
-27.44690348307291
 10
-61.81319512261284
 20
-26.93117268880208
 97
        0
 75
     0
 76
     1
 98
        1
 10
0.0
 20
0.0
  0
POLYLINE
  5
478
100
AcDbEntity
  8
PEGA_345
 62
     7
100
AcDb2dPolyline
 66
     1
 10
0.0
 20
0.0
 30
0.0
 70
     1
  0
VERTEX
  5
479
100
AcDbEntity
  8
PEGA_345
 62
     7
100
AcDbVertex
100
AcDb2dVertex
 10
61.813195
 20
-26.931173
 30
0.0
  0
VERTEX
  5
47A
100
AcDbEntity
  8
PEGA_345
 62
     7
100
AcDbVertex
100
AcDb2dVertex
 10
63.499914
 20
-27.446903
 30
0.0
  0
VERTEX
  5
47B
100
AcDbEntity
  8
PEGA_345
 62
     7
100
AcDbVertex
100
AcDb2dVertex
 10
61.813195
 20
-27.962634
 30
0.0
  0
SEQEND
  5
47C
100
AcDbEntity
  8
PEGA_345
 62
     7
  0
HATCH
  5
477
100
AcDbEntity
  8
PEGA_345
 62
     7
100
AcDbHatch
 10
0.0
 20
0.0
 30
0.0
210
0.0
220
0.0
230
1.0
  2
SOLID
 70
     1
 71
     0
 91
        1
 92
        3
 72
     0
 73
     1
 93
        3
 10
61.81319512261284
 20
-26.93117268880208
 10
63.49991387261284
 20
-27.44690348307291
 10
61.81319512261284
 20
-27.96263427734374
 97
        0
 75
     0
 76
     1
 98
        1
 10
0.0
 20
0.0
  0
ENDBLK
  5
487
100
AcDbEntity
  8
PEGA_345
100
AcDbBlockEnd
  0
BLOCK
  5
48A
100
AcDbEntity
  8
PEGA_345
 62
     7
100
AcDbBlockBegin
  2
AI9-BLK49
 70
     0
 10
0.0
 20
0.0
 30
0.0
  3
AI9-BLK49
  1

  0
POLYLINE
  5
48B
100
AcDbEntity
  8
PEGA_345
 62
     7
100
AcDb2dPolyline
 66
     1
 10
0.0
 20
0.0
 30
0.0
 70
     1
  0
VERTEX
  5
48C
100
AcDbEntity
  8
PEGA_345
 62
     7
100
AcDbVertex
100
AcDb2dVertex
 10
-63.499914
 20
25.4
 30
0.0
  0
VERTEX
  5
48D
100
AcDbEntity
  8
PEGA_345
 62
     7
100
AcDbVertex
100
AcDb2dVertex
 10
63.499914
 20
25.4
 30
0.0
  0
VERTEX
  5
48E
100
AcDbEntity
  8
PEGA_345
 62
     7
100
AcDbVertex
100
AcDb2dVertex
 10
63.499914
 20
-25.4
 30
0.0
  0
VERTEX
  5
48F
100
AcDbEntity
  8
PEGA_345
 62
     7
100
AcDbVertex
100
AcDb2dVertex
 10
-63.499914
 20
-25.4
 30
0.0
  0
SEQEND
  5
490
100
AcDbEntity
  8
PEGA_345
 62
     7
  0
ENDBLK
  5
491
100
AcDbEntity
  8
PEGA_345
100
AcDbBlockEnd
  0
BLOCK
  5
498
100
AcDbEntity
  8
PEGA_345
 62
     7
100
AcDbBlockBegin
  2
AI9-BLK50
 70
     0
 10
0.0
 20
0.0
 30
0.0
  3
AI9-BLK50
  1

  0
MTEXT
  5
4A8
100
AcDbEntity
  8
PEGA_345
 62
     7
100
AcDbMText
 10
-46.968279
 20
-14.139623
 30
0.0
 40
2.099868
 41
0.0
 71
     1
 72
     2
  1
\fArial|b0|i0;280.00" Recomended Safety / Maintenance Area 40" From All Components
  7
STD
 11
1.000001
 21
0.0
 31
0.0
  0
LINE
  5
4A7
100
AcDbEntity
  8
PEGA_345
 62
     7
100
AcDbLine
 10
-88.899569
 20
19.061713
 30
0.0
 11
-88.899569
 21
-19.061713
 31
0.0
  0
LINE
  5
4A6
100
AcDbEntity
  8
PEGA_345
 62
     7
100
AcDbLine
 10
88.899569
 20
18.591458
 30
0.0
 11
88.899569
 21
-19.061713
 31
0.0
  0
LINE
  5
4A5
100
AcDbEntity
  8
PEGA_345
 62
     7
100
AcDbLine
 10
-88.899569
 20
-17.297824
 30
0.0
 11
88.899569
 21
-17.297824
 31
0.0
  0
POLYLINE
  5
4A0
100
AcDbEntity
  8
PEGA_345
 62
     7
100
AcDb2dPolyline
 66
     1
 10
0.0
 20
0.0
 30
0.0
 70
     1
  0
VERTEX
  5
4A1
100
AcDbEntity
  8
PEGA_345
 62
     7
100
AcDbVertex
100
AcDb2dVertex
 10
-87.212851
 20
-17.813555
 30
0.0
  0
VERTEX
  5
4A2
100
AcDbEntity
  8
PEGA_345
 62
     7
100
AcDbVertex
100
AcDb2dVertex
 10
-88.899569
 20
-17.297824
 30
0.0
  0
VERTEX
  5
4A3
100
AcDbEntity
  8
PEGA_345
 62
     7
100
AcDbVertex
100
AcDb2dVertex
 10
-87.212851
 20
-16.782094
 30
0.0
  0
SEQEND
  5
4A4
100
AcDbEntity
  8
PEGA_345
 62
     7
  0
HATCH
  5
49F
100
AcDbEntity
  8
PEGA_345
 62
     7
100
AcDbHatch
 10
0.0
 20
0.0
 30
0.0
210
0.0
220
0.0
230
1.0
  2
SOLID
 70
     1
 71
     0
 91
        1
 92
        3
 72
     0
 73
     1
 93
        3
 10
-87.21285061306423
 20
-17.81355523003472
 10
-88.89956936306424
 20
-17.29782443576388
 10
-87.21285061306423
 20
-16.78209364149305
 97
        0
 75
     0
 76
     1
 98
        1
 10
0.0
 20
0.0
  0
POLYLINE
  5
49A
100
AcDbEntity
  8
PEGA_345
 62
     7
100
AcDb2dPolyline
 66
     1
 10
0.0
 20
0.0
 30
0.0
 70
     1
  0
VERTEX
  5
49B
100
AcDbEntity
  8
PEGA_345
 62
     7
100
AcDbVertex
100
AcDb2dVertex
 10
87.212851
 20
-16.782094
 30
0.0
  0
VERTEX
  5
49C
100
AcDbEntity
  8
PEGA_345
 62
     7
100
AcDbVertex
100
AcDb2dVertex
 10
88.899569
 20
-17.297824
 30
0.0
  0
VERTEX
  5
49D
100
AcDbEntity
  8
PEGA_345
 62
     7
100
AcDbVertex
100
AcDb2dVertex
 10
87.212851
 20
-17.813555
 30
0.0
  0
SEQEND
  5
49E
100
AcDbEntity
  8
PEGA_345
 62
     7
  0
HATCH
  5
499
100
AcDbEntity
  8
PEGA_345
 62
     7
100
AcDbHatch
 10
0.0
 20
0.0
 30
0.0
210
0.0
220
0.0
230
1.0
  2
SOLID
 70
     1
 71
     0
 91
        1
 92
        3
 72
     0
 73
     1
 93
        3
 10
87.21285061306423
 20
-16.78209364149305
 10
88.89956936306424
 20
-17.29782443576388
 10
87.21285061306423
 20
-17.81355523003472
 97
        0
 75
     0
 76
     1
 98
        1
 10
0.0
 20
0.0
  0
ENDBLK
  5
4A9
100
AcDbEntity
  8
PEGA_345
100
AcDbBlockEnd
  0
ENDSEC
  0
SECTION
  2
ENTITIES
  0
INSERT
  5
497
100
AcDbEntity
  8
PEGA_345
 62
     7
100
AcDbBlockReference
  2
AI9-BLK50
 10
198.780373
 20
-208.268424
 30
0.0
  0
MTEXT
  5
495
100
AcDbEntity
  8
PEGA_345
 62
     7
100
AcDbMText
 10
146.52973
 20
-118.649868
 30
0.0
 40
2.099868
 41
0.0
 71
     1
 72
     2
  1
\fArial|b0|i0;Tables Required
  7
STD
 11
1.000001
 21
0.0
 31
0.0
  0
MTEXT
  5
494
100
AcDbEntity
  8
PEGA_345
 62
     7
100
AcDbMText
 10
140.33407
 20
-115.298479
 30
0.0
 40
2.099868
 41
0.0
 71
     1
 72
     2
  1
\fArial|b0|i0;Optional Material Support 
  7
STD
 11
1.000001
 21
0.0
 31
0.0
  0
MTEXT
  5
493
100
AcDbEntity
  8
PEGA_345
 62
     7
100
AcDbMText
 10
230.546479
 20
-157.641286
 30
0.0
 40
2.099868
 41
0.0
 71
     1
 72
     2
  1
\fArial|b0|i0;Tables Required
  7
STD
 11
1.000001
 21
0.0
 31
0.0
  0
MTEXT
  5
492
100
AcDbEntity
  8
PEGA_345
 62
     7
100
AcDbMText
 10
224.350819
 20
-154.289897
 30
0.0
 40
2.099868
 41
0.0
 71
     1
 72
     2
  1
\fArial|b0|i0;Optional Material Support 
  7
STD
 11
1.000001
 21
0.0
 31
0.0
  0
INSERT
  5
489
100
AcDbEntity
  8
PEGA_345
 62
     7
100
AcDbBlockReference
  2
AI9-BLK49
 10
198.780718
 20
-137.306348
 30
0.0
  0
INSERT
  5
475
100
AcDbEntity
  8
PEGA_345
 62
     7
100
AcDbBlockReference
  2
AI9-BLK48
 10
198.780718
 20
-193.252459
 30
0.0
  0
INSERT
  5
461
100
AcDbEntity
  8
PEGA_345
 62
     7
100
AcDbBlockReference
  2
AI9-BLK47
 10
116.991136
 20
-137.306348
 30
0.0
  0
INSERT
  5
44D
100
AcDbEntity
  8
PEGA_345
 62
     7
100
AcDbBlockReference
  2
AI9-BLK46
 10
146.633082
 20
-93.341159
 30
0.0
  0
INSERT
  5
438
100
AcDbEntity
  8
PEGA_345
 62
     7
100
AcDbBlockReference
  2
AI9-BLK45
 10
140.274986
 20
-170.342402
 30
0.0
  0
INSERT
  5
424
100
AcDbEntity
  8
PEGA_345
 62
     7
100
AcDbBlockReference
  2
AI9-BLK44
 10
143.036403
 20
-126.377213
 30
0.0
  0
POLYLINE
  5
41D
100
AcDbEntity
  8
PEGA_345
 62
     7
100
AcDb2dPolyline
 66
     1
 10
0.0
 20
0.0
 30
0.0
 70
     1
  0
VERTEX
  5
41E
100
AcDbEntity
  8
PEGA_345
 62
     7
100
AcDbVertex
100
AcDb2dVertex
 10
195.698477
 20
-82.458533
 30
0.0
  0
VERTEX
  5
41F
100
AcDbEntity
  8
PEGA_345
 62
     7
100
AcDbVertex
100
AcDb2dVertex
 10
194.957781
 20
-82.464562
 30
0.0
  0
VERTEX
  5
420
100
AcDbEntity
  8
PEGA_345
 62
     7
100
AcDbVertex
100
AcDb2dVertex
 10
194.957781
 20
-74.77597
 30
0.0
  0
VERTEX
  5
421
100
AcDbEntity
  8
PEGA_345
 62
     7
100
AcDbVertex
100
AcDb2dVertex
 10
195.698477
 20
-74.769941
 30
0.0
  0
SEQEND
  5
422
100
AcDbEntity
  8
PEGA_345
 62
     7
  0
POLYLINE
  5
417
100
AcDbEntity
  8
PEGA_345
 62
     7
100
AcDb2dPolyline
 66
     1
 10
0.0
 20
0.0
 30
0.0
 70
     1
  0
VERTEX
  5
418
100
AcDbEntity
  8
PEGA_345
 62
     7
100
AcDbVertex
100
AcDb2dVertex
 10
202.56972
 20
-82.461633
 30
0.0
  0
VERTEX
  5
419
100
AcDbEntity
  8
PEGA_345
 62
     7
100
AcDbVertex
100
AcDb2dVertex
 10
201.829024
 20
-82.461633
 30
0.0
  0
VERTEX
  5
41A
100
AcDbEntity
  8
PEGA_345
 62
     7
100
AcDbVertex
100
AcDb2dVertex
 10
201.829024
 20
-74.773041
 30
0.0
  0
VERTEX
  5
41B
100
AcDbEntity
  8
PEGA_345
 62
     7
100
AcDbVertex
100
AcDb2dVertex
 10
202.56972
 20
-74.773041
 30
0.0
  0
SEQEND
  5
41C
100
AcDbEntity
  8
PEGA_345
 62
     7
  0
POLYLINE
  5
411
100
AcDbEntity
  8
PEGA_345
 62
     7
100
AcDb2dPolyline
 66
     1
 10
0.0
 20
0.0
 30
0.0
 70
     1
  0
VERTEX
  5
412
100
AcDbEntity
  8
PEGA_345
 62
     7
100
AcDbVertex
100
AcDb2dVertex
 10
201.827991
 20
-82.464562
 30
0.0
  0
VERTEX
  5
413
100
AcDbEntity
  8
PEGA_345
 62
     7
100
AcDbVertex
100
AcDb2dVertex
 10
195.697443
 20
-82.461633
 30
0.0
  0
VERTEX
  5
414
100
AcDbEntity
  8
PEGA_345
 62
     7
100
AcDbVertex
100
AcDb2dVertex
 10
195.700199
 20
-74.773041
 30
0.0
  0
VERTEX
  5
415
100
AcDbEntity
  8
PEGA_345
 62
     7
100
AcDbVertex
100
AcDb2dVertex
 10
201.830747
 20
-74.77597
 30
0.0
  0
SEQEND
  5
416
100
AcDbEntity
  8
PEGA_345
 62
     7
  0
POLYLINE
  5
40B
100
AcDbEntity
  8
PEGA_345
 62
     7
100
AcDb2dPolyline
 66
     1
 10
0.0
 20
0.0
 30
0.0
 70
     1
  0
VERTEX
  5
40C
100
AcDbEntity
  8
PEGA_345
 62
     7
100
AcDbVertex
100
AcDb2dVertex
 10
187.658313
 20
-90.445814
 30
0.0
  0
VERTEX
  5
40D
100
AcDbEntity
  8
PEGA_345
 62
     7
100
AcDbVertex
100
AcDb2dVertex
 10
174.655489
 20
-90.445814
 30
0.0
  0
VERTEX
  5
40E
100
AcDbEntity
  8
PEGA_345
 62
     7
100
AcDbVertex
100
AcDb2dVertex
 10
174.655489
 20
-75.688059
 30
0.0
  0
VERTEX
  5
40F
100
AcDbEntity
  8
PEGA_345
 62
     7
100
AcDbVertex
100
AcDb2dVertex
 10
187.658313
 20
-75.688059
 30
0.0
  0
SEQEND
  5
410
100
AcDbEntity
  8
PEGA_345
 62
     7
  0
POLYLINE
  5
405
100
AcDbEntity
  8
PEGA_345
 62
     7
100
AcDb2dPolyline
 66
     1
 10
0.0
 20
0.0
 30
0.0
 70
     1
  0
VERTEX
  5
406
100
AcDbEntity
  8
PEGA_345
 62
     7
100
AcDbVertex
100
AcDb2dVertex
 10
167.726369
 20
-96.663523
 30
0.0
  0
VERTEX
  5
407
100
AcDbEntity
  8
PEGA_345
 62
     7
100
AcDbVertex
100
AcDb2dVertex
 10
163.780356
 20
-96.663523
 30
0.0
  0
VERTEX
  5
408
100
AcDbEntity
  8
PEGA_345
 62
     7
100
AcDbVertex
100
AcDb2dVertex
 10
163.780356
 20
-90.739853
 30
0.0
  0
VERTEX
  5
409
100
AcDbEntity
  8
PEGA_345
 62
     7
100
AcDbVertex
100
AcDb2dVertex
 10
167.726369
 20
-90.739853
 30
0.0
  0
SEQEND
  5
40A
100
AcDbEntity
  8
PEGA_345
 62
     7
  0
SPLINE
  5
404
100
AcDbEntity
  8
PEGA_345
 62
     7
100
AcDbSpline
210
0.0
220
0.0
230
-1.0
 70
     9
 71
     3
 72
    23
 73
    19
 74
     0
 42
0.0000001
 43
0.0000001
 40
0.0
 40
0.0
 40
0.0
 40
0.0
 40
1.0
 40
1.0
 40
1.0
 40
2.0
 40
2.0
 40
2.0
 40
3.0
 40
3.0
 40
3.0
 40
4.0
 40
4.0
 40
4.0
 40
5.0
 40
5.0
 40
5.0
 40
6.0
 40
6.0
 40
6.0
 40
6.0
 10
179.250557454427
 20
-114.8463921440972
 30
0.0
 10
179.250557454427
 20
-114.8463921440972
 30
0.0
 10
178.3097018771701
 20
-114.8463921440972
 30
0.0
 10
177.0749796549478
 20
-114.8463921440972
 30
0.0
 10
175.8402574327256
 20
-114.8463921440972
 30
0.0
 10
175.8402574327256
 20
-115.7869032118055
 30
0.0
 10
175.8402574327256
 20
-115.7869032118055
 30
0.0
 10
175.8402574327256
 20
-115.7869032118055
 30
0.0
 10
175.8402574327256
 20
-137.7769476996527
 30
0.0
 10
175.8402574327256
 20
-138.6003255208333
 30
0.0
 10
175.8402574327256
 20
-139.4230143229166
 30
0.0
 10
177.0749796549478
 20
-139.4230143229166
 30
0.0
 10
177.0749796549478
 20
-139.4230143229166
 30
0.0
 10
177.0749796549478
 20
-139.4230143229166
 30
0.0
 10
179.250557454427
 20
-139.4230143229166
 30
0.0
 10
179.250557454427
 20
-139.4230143229166
 30
0.0
 10
179.250557454427
 20
-139.4230143229166
 30
0.0
 10
179.250557454427
 20
-114.8463921440972
 30
0.0
 10
179.250557454427
 20
-114.8463921440972
 30
0.0
  0
SPLINE
  5
403
100
AcDbEntity
  8
PEGA_345
 62
     7
100
AcDbSpline
210
0.0
220
0.0
230
-1.0
 70
     9
 71
     3
 72
    23
 73
    19
 74
     0
 42
0.0000001
 43
0.0000001
 40
0.0
 40
0.0
 40
0.0
 40
0.0
 40
1.0
 40
1.0
 40
1.0
 40
2.0
 40
2.0
 40
2.0
 40
3.0
 40
3.0
 40
3.0
 40
4.0
 40
4.0
 40
4.0
 40
5.0
 40
5.0
 40
5.0
 40
6.0
 40
6.0
 40
6.0
 40
6.0
 10
191.2680840386284
 20
-107.5849921332465
 30
0.0
 10
191.2680840386284
 20
-107.5849921332465
 30
0.0
 10
181.3672241210937
 20
-107.5849921332465
 30
0.0
 10
180.3088907877604
 20
-107.5849921332465
 30
0.0
 10
179.250557454427
 20
-107.5849921332465
 30
0.0
 10
179.250557454427
 20
-108.7315199110243
 30
0.0
 10
179.250557454427
 20
-108.7315199110243
 30
0.0
 10
179.250557454427
 20
-108.7315199110243
 30
0.0
 10
179.250557454427
 20
-146.8313476562499
 30
0.0
 10
179.250557454427
 20
-147.8014865451388
 30
0.0
 10
179.250557454427
 20
-148.7716254340277
 30
0.0
 10
180.3088907877604
 20
-148.7716254340277
 30
0.0
 10
180.3088907877604
 20
-148.7716254340277
 30
0.0
 10
180.3088907877604
 20
-148.7716254340277
 30
0.0
 10
191.2680840386284
 20
-148.7716254340277
 30
0.0
 10
191.2680840386284
 20
-148.7716254340277
 30
0.0
 10
191.2680840386284
 20
-148.7716254340277
 30
0.0
 10
191.2680840386284
 20
-107.5849921332465
 30
0.0
 10
191.2680840386284
 20
-107.5849921332465
 30
0.0
  0
SPLINE
  5
402
100
AcDbEntity
  8
PEGA_345
 62
     7
100
AcDbSpline
210
0.0
220
0.0
230
1.0
 70
     9
 71
     3
 72
    20
 73
    16
 74
     0
 42
0.0000001
 43
0.0000001
 40
0.0
 40
0.0
 40
0.0
 40
0.0
 40
1.0
 40
1.0
 40
1.0
 40
2.0
 40
2.0
 40
2.0
 40
3.0
 40
3.0
 40
3.0
 40
4.0
 40
4.0
 40
4.0
 40
5.0
 40
5.0
 40
5.0
 40
5.0
 10
206.2570054796006
 20
-107.5849921332465
 30
0.0
 10
206.2570054796006
 20
-107.5849921332465
 30
0.0
 10
212.7647908528645
 20
-107.5849921332465
 30
0.0
 10
213.9113186306423
 20
-107.5849921332465
 30
0.0
 10
215.0578464084201
 20
-107.5849921332465
 30
0.0
 10
215.0578464084201
 20
-108.7315199110243
 30
0.0
 10
215.0578464084201
 20
-108.7315199110243
 30
0.0
 10
215.0578464084201
 20
-108.7315199110243
 30
0.0
 10
215.0578464084201
 20
-148.7716254340277
 30
0.0
 10
215.0578464084201
 20
-148.7716254340277
 30
0.0
 10
215.0578464084201
 20
-148.7716254340277
 30
0.0
 10
206.2570054796006
 20
-148.7716254340277
 30
0.0
 10
206.2570054796006
 20
-148.7716254340277
 30
0.0
 10
206.2570054796006
 20
-148.7716254340277
 30
0.0
 10
206.2570054796006
 20
-107.5849921332465
 30
0.0
 10
206.2570054796006
 20
-107.5849921332465
 30
0.0
  0
POLYLINE
  5
3FC
100
AcDbEntity
  8
PEGA_345
 62
     7
100
AcDb2dPolyline
 66
     1
 10
0.0
 20
0.0
 30
0.0
 70
     1
  0
VERTEX
  5
3FD
100
AcDbEntity
  8
PEGA_345
 62
     7
100
AcDbVertex
100
AcDb2dVertex
 10
215.057846
 20
-130.074403
 30
0.0
  0
VERTEX
  5
3FE
100
AcDbEntity
  8
PEGA_345
 62
     7
100
AcDbVertex
100
AcDb2dVertex
 10
216.46913
 20
-130.868153
 30
0.0
  0
VERTEX
  5
3FF
100
AcDbEntity
  8
PEGA_345
 62
     7
100
AcDbVertex
100
AcDb2dVertex
 10
216.46913
 20
-139.863987
 30
0.0
  0
VERTEX
  5
400
100
AcDbEntity
  8
PEGA_345
 62
     7
100
AcDbVertex
100
AcDb2dVertex
 10
215.057846
 20
-140.569542
 30
0.0
  0
SEQEND
  5
401
100
AcDbEntity
  8
PEGA_345
 62
     7
  0
POLYLINE
  5
3F6
100
AcDbEntity
  8
PEGA_345
 62
     7
100
AcDb2dPolyline
 66
     1
 10
0.0
 20
0.0
 30
0.0
 70
     1
  0
VERTEX
  5
3F7
100
AcDbEntity
  8
PEGA_345
 62
     7
100
AcDbVertex
100
AcDb2dVertex
 10
206.257005
 20
-148.771625
 30
0.0
  0
VERTEX
  5
3F8
100
AcDbEntity
  8
PEGA_345
 62
     7
100
AcDbVertex
100
AcDb2dVertex
 10
215.057846
 20
-148.771625
 30
0.0
  0
VERTEX
  5
3F9
100
AcDbEntity
  8
PEGA_345
 62
     7
100
AcDbVertex
100
AcDb2dVertex
 10
215.057846
 20
-177.978456
 30
0.0
  0
VERTEX
  5
3FA
100
AcDbEntity
  8
PEGA_345
 62
     7
100
AcDbVertex
100
AcDb2dVertex
 10
206.257005
 20
-177.978456
 30
0.0
  0
SEQEND
  5
3FB
100
AcDbEntity
  8
PEGA_345
 62
     7
  0
SPLINE
  5
3F5
100
AcDbEntity
  8
PEGA_345
 62
     7
100
AcDbSpline
210
0.0
220
0.0
230
1.0
 70
     9
 71
     3
 72
    26
 73
    22
 74
     0
 42
0.0000001
 43
0.0000001
 40
0.0
 40
0.0
 40
0.0
 40
0.0
 40
1.0
 40
1.0
 40
1.0
 40
2.0
 40
2.0
 40
2.0
 40
3.0
 40
3.0
 40
3.0
 40
4.0
 40
4.0
 40
4.0
 40
5.0
 40
5.0
 40
5.0
 40
6.0
 40
6.0
 40
6.0
 40
7.0
 40
7.0
 40
7.0
 40
7.0
 10
191.2680840386284
 20
-177.9784559461805
 30
0.0
 10
191.2680840386284
 20
-177.9784559461805
 30
0.0
 10
191.2680840386284
 20
-148.7716254340277
 30
0.0
 10
191.2680840386284
 20
-148.7716254340277
 30
0.0
 10
191.2680840386284
 20
-148.7716254340277
 30
0.0
 10
180.3088907877604
 20
-148.7716254340277
 30
0.0
 10
180.3088907877604
 20
-148.7716254340277
 30
0.0
 10
179.250557454427
 20
-148.8598198784722
 30
0.0
 10
179.250557454427
 20
-147.8014865451388
 30
0.0
 10
179.250557454427
 20
-147.8014865451388
 30
0.0
 10
179.250557454427
 20
-147.8014865451388
 30
0.0
 10
179.250557454427
 20
-157.3264865451388
 30
0.0
 10
179.250557454427
 20
-157.3264865451388
 30
0.0
 10
179.250557454427
 20
-157.3264865451388
 30
0.0
 10
180.3970852322048
 20
-157.3264865451388
 30
0.0
 10
180.3970852322048
 20
-157.3264865451388
 30
0.0
 10
180.3970852322048
 20
-157.3264865451388
 30
0.0
 10
180.3970852322048
 20
-177.9784559461805
 30
0.0
 10
180.3970852322048
 20
-177.9784559461805
 30
0.0
 10
180.3970852322048
 20
-177.9784559461805
 30
0.0
 10
191.2680840386284
 20
-177.9784559461805
 30
0.0
 10
191.2680840386284
 20
-177.9784559461805
 30
0.0
  0
POLYLINE
  5
3EF
100
AcDbEntity
  8
PEGA_345
 62
     7
100
AcDb2dPolyline
 66
     1
 10
0.0
 20
0.0
 30
0.0
 70
     1
  0
VERTEX
  5
3F0
100
AcDbEntity
  8
PEGA_345
 62
     7
100
AcDbVertex
100
AcDb2dVertex
 10
191.268084
 20
-82.464562
 30
0.0
  0
VERTEX
  5
3F1
100
AcDbEntity
  8
PEGA_345
 62
     7
100
AcDbVertex
100
AcDb2dVertex
 10
206.257005
 20
-82.464562
 30
0.0
  0
VERTEX
  5
3F2
100
AcDbEntity
  8
PEGA_345
 62
     7
100
AcDbVertex
100
AcDb2dVertex
 10
206.257005
 20
-177.802067
 30
0.0
  0
VERTEX
  5
3F3
100
AcDbEntity
  8
PEGA_345
 62
     7
100
AcDbVertex
100
AcDb2dVertex
 10
191.268084
 20
-177.802067
 30
0.0
  0
SEQEND
  5
3F4
100
AcDbEntity
  8
PEGA_345
 62
     7
  0
POLYLINE
  5
3E5
100
AcDbEntity
  8
PEGA_345
 62
     7
100
AcDb2dPolyline
 66
     1
 10
0.0
 20
0.0
 30
0.0
 70
     1
  0
VERTEX
  5
3E6
100
AcDbEntity
  8
PEGA_345
 62
     7
100
AcDbVertex
100
AcDb2dVertex
 10
233.532688
 20
-105.203742
 30
0.0
  0
VERTEX
  5
3E7
100
AcDbEntity
  8
PEGA_345
 62
     7
100
AcDbVertex
100
AcDb2dVertex
 10
233.529932
 20
-96.676097
 30
0.0
  0
VERTEX
  5
3E8
100
AcDbEntity
  8
PEGA_345
 62
     7
100
AcDbVertex
100
AcDb2dVertex
 10
228.235509
 20
-96.663523
 30
0.0
  0
VERTEX
  5
3E9
100
AcDbEntity
  8
PEGA_345
 62
     7
100
AcDbVertex
100
AcDb2dVertex
 10
228.235509
 20
-93.182254
 30
0.0
  0
VERTEX
  5
3EA
100
AcDbEntity
  8
PEGA_345
 62
     7
100
AcDbVertex
100
AcDb2dVertex
 10
219.793647
 20
-93.182254
 30
0.0
  0
VERTEX
  5
3EB
100
AcDbEntity
  8
PEGA_345
 62
     7
100
AcDbVertex
100
AcDb2dVertex
 10
219.793647
 20
-96.663523
 30
0.0
  0
VERTEX
  5
3EC
100
AcDbEntity
  8
PEGA_345
 62
     7
100
AcDbVertex
100
AcDb2dVertex
 10
206.257005
 20
-96.663523
 30
0.0
  0
VERTEX
  5
3ED
100
AcDbEntity
  8
PEGA_345
 62
     7
100
AcDbVertex
100
AcDb2dVertex
 10
206.257005
 20
-105.203742
 30
0.0
  0
SEQEND
  5
3EE
100
AcDbEntity
  8
PEGA_345
 62
     7
  0
POLYLINE
  5
3DF
100
AcDbEntity
  8
PEGA_345
 62
     7
100
AcDb2dPolyline
 66
     1
 10
0.0
 20
0.0
 30
0.0
 70
     1
  0
VERTEX
  5
3E0
100
AcDbEntity
  8
PEGA_345
 62
     7
100
AcDbVertex
100
AcDb2dVertex
 10
163.780356
 20
-96.663523
 30
0.0
  0
VERTEX
  5
3E1
100
AcDbEntity
  8
PEGA_345
 62
     7
100
AcDbVertex
100
AcDb2dVertex
 10
191.268084
 20
-96.663523
 30
0.0
  0
VERTEX
  5
3E2
100
AcDbEntity
  8
PEGA_345
 62
     7
100
AcDbVertex
100
AcDb2dVertex
 10
191.268084
 20
-105.203742
 30
0.0
  0
VERTEX
  5
3E3
100
AcDbEntity
  8
PEGA_345
 62
     7
100
AcDbVertex
100
AcDb2dVertex
 10
163.780356
 20
-105.203742
 30
0.0
  0
SEQEND
  5
3E4
100
AcDbEntity
  8
PEGA_345
 62
     7
  0
POLYLINE
  5
3D9
100
AcDbEntity
  8
PEGA_345
 62
     7
100
AcDb2dPolyline
 66
     1
 10
0.0
 20
0.0
 30
0.0
 70
     1
  0
VERTEX
  5
3DA
100
AcDbEntity
  8
PEGA_345
 62
     7
100
AcDbVertex
100
AcDb2dVertex
 10
176.069701
 20
-90.445814
 30
0.0
  0
VERTEX
  5
3DB
100
AcDbEntity
  8
PEGA_345
 62
     7
100
AcDbVertex
100
AcDb2dVertex
 10
167.726369
 20
-90.445814
 30
0.0
  0
VERTEX
  5
3DC
100
AcDbEntity
  8
PEGA_345
 62
     7
100
AcDbVertex
100
AcDb2dVertex
 10
167.726369
 20
-96.663523
 30
0.0
  0
VERTEX
  5
3DD
100
AcDbEntity
  8
PEGA_345
 62
     7
100
AcDbVertex
100
AcDb2dVertex
 10
176.069701
 20
-96.663523
 30
0.0
  0
SEQEND
  5
3DE
100
AcDbEntity
  8
PEGA_345
 62
     7
  0
POLYLINE
  5
3D3
100
AcDbEntity
  8
PEGA_345
 62
     7
100
AcDb2dPolyline
 66
     1
 10
0.0
 20
0.0
 30
0.0
 70
     1
  0
VERTEX
  5
3D4
100
AcDbEntity
  8
PEGA_345
 62
     7
100
AcDbVertex
100
AcDb2dVertex
 10
176.069701
 20
-90.445814
 30
0.0
  0
VERTEX
  5
3D5
100
AcDbEntity
  8
PEGA_345
 62
     7
100
AcDbVertex
100
AcDb2dVertex
 10
183.490781
 20
-90.445814
 30
0.0
  0
VERTEX
  5
3D6
100
AcDbEntity
  8
PEGA_345
 62
     7
100
AcDbVertex
100
AcDb2dVertex
 10
183.490781
 20
-91.187371
 30
0.0
  0
VERTEX
  5
3D7
100
AcDbEntity
  8
PEGA_345
 62
     7
100
AcDbVertex
100
AcDb2dVertex
 10
176.069701
 20
-91.187371
 30
0.0
  0
SEQEND
  5
3D8
100
AcDbEntity
  8
PEGA_345
 62
     7
  0
POLYLINE
  5
3CD
100
AcDbEntity
  8
PEGA_345
 62
     7
100
AcDb2dPolyline
 66
     1
 10
0.0
 20
0.0
 30
0.0
 70
     1
  0
VERTEX
  5
3CE
100
AcDbEntity
  8
PEGA_345
 62
     7
100
AcDbVertex
100
AcDb2dVertex
 10
176.069701
 20
-95.921966
 30
0.0
  0
VERTEX
  5
3CF
100
AcDbEntity
  8
PEGA_345
 62
     7
100
AcDbVertex
100
AcDb2dVertex
 10
183.490781
 20
-95.921966
 30
0.0
  0
VERTEX
  5
3D0
100
AcDbEntity
  8
PEGA_345
 62
     7
100
AcDbVertex
100
AcDb2dVertex
 10
183.490781
 20
-96.663523
 30
0.0
  0
VERTEX
  5
3D1
100
AcDbEntity
  8
PEGA_345
 62
     7
100
AcDbVertex
100
AcDb2dVertex
 10
176.069701
 20
-96.663523
 30
0.0
  0
SEQEND
  5
3D2
100
AcDbEntity
  8
PEGA_345
 62
     7
  0
POLYLINE
  5
3C7
100
AcDbEntity
  8
PEGA_345
 62
     7
100
AcDb2dPolyline
 66
     1
 10
0.0
 20
0.0
 30
0.0
 70
     1
  0
VERTEX
  5
3C8
100
AcDbEntity
  8
PEGA_345
 62
     7
100
AcDbVertex
100
AcDb2dVertex
 10
176.069701
 20
-91.187371
 30
0.0
  0
VERTEX
  5
3C9
100
AcDbEntity
  8
PEGA_345
 62
     7
100
AcDbVertex
100
AcDb2dVertex
 10
183.490781
 20
-91.187371
 30
0.0
  0
VERTEX
  5
3CA
100
AcDbEntity
  8
PEGA_345
 62
     7
100
AcDbVertex
100
AcDb2dVertex
 10
183.490781
 20
-95.921966
 30
0.0
  0
VERTEX
  5
3CB
100
AcDbEntity
  8
PEGA_345
 62
     7
100
AcDbVertex
100
AcDb2dVertex
 10
176.069701
 20
-95.921966
 30
0.0
  0
SEQEND
  5
3CC
100
AcDbEntity
  8
PEGA_345
 62
     7
  0
POLYLINE
  5
3C1
100
AcDbEntity
  8
PEGA_345
 62
     7
100
AcDb2dPolyline
 66
     1
 10
0.0
 20
0.0
 30
0.0
 70
     1
  0
VERTEX
  5
3C2
100
AcDbEntity
  8
PEGA_345
 62
     7
100
AcDbVertex
100
AcDb2dVertex
 10
183.490781
 20
-95.386081
 30
0.0
  0
VERTEX
  5
3C3
100
AcDbEntity
  8
PEGA_345
 62
     7
100
AcDbVertex
100
AcDb2dVertex
 10
176.069701
 20
-95.386081
 30
0.0
  0
VERTEX
  5
3C4
100
AcDbEntity
  8
PEGA_345
 62
     7
100
AcDbVertex
100
AcDb2dVertex
 10
176.069701
 20
-95.921966
 30
0.0
  0
VERTEX
  5
3C5
100
AcDbEntity
  8
PEGA_345
 62
     7
100
AcDbVertex
100
AcDb2dVertex
 10
183.490781
 20
-95.921966
 30
0.0
  0
SEQEND
  5
3C6
100
AcDbEntity
  8
PEGA_345
 62
     7
  0
POLYLINE
  5
3BB
100
AcDbEntity
  8
PEGA_345
 62
     7
100
AcDb2dPolyline
 66
     1
 10
0.0
 20
0.0
 30
0.0
 70
     1
  0
VERTEX
  5
3BC
100
AcDbEntity
  8
PEGA_345
 62
     7
100
AcDbVertex
100
AcDb2dVertex
 10
183.490781
 20
-91.187371
 30
0.0
  0
VERTEX
  5
3BD
100
AcDbEntity
  8
PEGA_345
 62
     7
100
AcDbVertex
100
AcDb2dVertex
 10
176.069701
 20
-91.187371
 30
0.0
  0
VERTEX
  5
3BE
100
AcDbEntity
  8
PEGA_345
 62
     7
100
AcDbVertex
100
AcDb2dVertex
 10
176.069701
 20
-91.723256
 30
0.0
  0
VERTEX
  5
3BF
100
AcDbEntity
  8
PEGA_345
 62
     7
100
AcDbVertex
100
AcDb2dVertex
 10
183.490781
 20
-91.723256
 30
0.0
  0
SEQEND
  5
3C0
100
AcDbEntity
  8
PEGA_345
 62
     7
  0
POLYLINE
  5
3B5
100
AcDbEntity
  8
PEGA_345
 62
     7
100
AcDb2dPolyline
 66
     1
 10
0.0
 20
0.0
 30
0.0
 70
     1
  0
VERTEX
  5
3B6
100
AcDbEntity
  8
PEGA_345
 62
     7
100
AcDbVertex
100
AcDb2dVertex
 10
180.999288
 20
-96.663523
 30
0.0
  0
VERTEX
  5
3B7
100
AcDbEntity
  8
PEGA_345
 62
     7
100
AcDbVertex
100
AcDb2dVertex
 10
183.490781
 20
-96.663523
 30
0.0
  0
VERTEX
  5
3B8
100
AcDbEntity
  8
PEGA_345
 62
     7
100
AcDbVertex
100
AcDb2dVertex
 10
183.490781
 20
-90.445814
 30
0.0
  0
VERTEX
  5
3B9
100
AcDbEntity
  8
PEGA_345
 62
     7
100
AcDbVertex
100
AcDb2dVertex
 10
180.999288
 20
-90.445814
 30
0.0
  0
SEQEND
  5
3BA
100
AcDbEntity
  8
PEGA_345
 62
     7
  0
POLYLINE
  5
3AC
100
AcDbEntity
  8
PEGA_345
 62
     7
100
AcDb2dPolyline
 66
     1
 10
0.0
 20
0.0
 30
0.0
  0
VERTEX
  5
3AD
100
AcDbEntity
  8
PEGA_345
 62
     7
100
AcDbVertex
100
AcDb2dVertex
 10
216.46913
 20
-134.601948
 30
0.0
  0
VERTEX
  5
3AE
100
AcDbEntity
  8
PEGA_345
 62
     7
100
AcDbVertex
100
AcDb2dVertex
 10
229.353098
 20
-134.601948
 30
0.0
  0
VERTEX
  5
3AF
100
AcDbEntity
  8
PEGA_345
 62
     7
100
AcDbVertex
100
AcDb2dVertex
 10
229.353098
 20
-117.198014
 30
0.0
  0
VERTEX
  5
3B0
100
AcDbEntity
  8
PEGA_345
 62
     7
100
AcDbVertex
100
AcDb2dVertex
 10
233.532688
 20
-117.198014
 30
0.0
  0
VERTEX
  5
3B1
100
AcDbEntity
  8
PEGA_345
 62
     7
100
AcDbVertex
100
AcDb2dVertex
 10
233.532688
 20
-105.203742
 30
0.0
  0
VERTEX
  5
3B2
100
AcDbEntity
  8
PEGA_345
 62
     7
100
AcDbVertex
100
AcDb2dVertex
 10
206.257005
 20
-105.203742
 30
0.0
  0
VERTEX
  5
3B3
100
AcDbEntity
  8
PEGA_345
 62
     7
100
AcDbVertex
100
AcDb2dVertex
 10
206.257005
 20
-134.601948
 30
0.0
  0
SEQEND
  5
3B4
100
AcDbEntity
  8
PEGA_345
 62
     7
  0
POLYLINE
  5
3A5
100
AcDbEntity
  8
PEGA_345
 62
     7
100
AcDb2dPolyline
 66
     1
 10
0.0
 20
0.0
 30
0.0
  0
VERTEX
  5
3A6
100
AcDbEntity
  8
PEGA_345
 62
     7
100
AcDbVertex
100
AcDb2dVertex
 10
175.840257
 20
-134.601948
 30
0.0
  0
VERTEX
  5
3A7
100
AcDbEntity
  8
PEGA_345
 62
     7
100
AcDbVertex
100
AcDb2dVertex
 10
165.379569
 20
-134.601948
 30
0.0
  0
VERTEX
  5
3A8
100
AcDbEntity
  8
PEGA_345
 62
     7
100
AcDbVertex
100
AcDb2dVertex
 10
165.379569
 20
-105.203742
 30
0.0
  0
VERTEX
  5
3A9
100
AcDbEntity
  8
PEGA_345
 62
     7
100
AcDbVertex
100
AcDb2dVertex
 10
191.268084
 20
-105.203742
 30
0.0
  0
VERTEX
  5
3AA
100
AcDbEntity
  8
PEGA_345
 62
     7
100
AcDbVertex
100
AcDb2dVertex
 10
191.268084
 20
-134.601948
 30
0.0
  0
SEQEND
  5
3AB
100
AcDbEntity
  8
PEGA_345
 62
     7
  0
INSERT
  5
3A1
100
AcDbEntity
  8
PEGA_345
  6
AI9-LTYPE2
 62
     7
100
AcDbBlockReference
  2
AI9-BLK43
 10
198.780804
 20
-146.213642
 30
0.0
  0
LINE
  5
39F
100
AcDbEntity
  8
PEGA_345
  6
AI9-LTYPE2
 62
     7
100
AcDbLine
 10
172.078902
 20
-146.213298
 30
0.0
 11
219.53182
 21
-146.213298
 31
0.0
  0
INSERT
  5
390
100
AcDbEntity
  8
PEGA_345
 62
     7
100
AcDbBlockReference
  2
AI9-BLK41
 10
203.081661
 20
-86.592131
 30
0.0
  0
POLYLINE
  5
389
100
AcDbEntity
  8
PEGA_345
 62
     7
100
AcDb2dPolyline
 66
     1
 10
0.0
 20
0.0
 30
0.0
 70
     1
  0
VERTEX
  5
38A
100
AcDbEntity
  8
PEGA_345
 62
     7
100
AcDbVertex
100
AcDb2dVertex
 10
221.768376
 20
-57.200643
 30
0.0
  0
VERTEX
  5
38B
100
AcDbEntity
  8
PEGA_345
 62
     7
100
AcDbVertex
100
AcDb2dVertex
 10
203.910551
 20
-87.420848
 30
0.0
  0
VERTEX
  5
38C
100
AcDbEntity
  8
PEGA_345
 62
     7
100
AcDbVertex
100
AcDb2dVertex
 10
202.323051
 20
-85.833348
 30
0.0
  0
VERTEX
  5
38D
100
AcDbEntity
  8
PEGA_345
 62
     7
100
AcDbVertex
100
AcDb2dVertex
 10
220.690061
 20
-55.691002
 30
0.0
  0
SEQEND
  5
38E
100
AcDbEntity
  8
PEGA_345
 62
     7
  0
POLYLINE
  5
381
100
AcDbEntity
  8
PEGA_345
 62
     7
100
AcDb2dPolyline
 66
     1
 10
0.0
 20
0.0
 30
0.0
 70
     1
  0
VERTEX
  5
382
100
AcDbEntity
  8
PEGA_345
 62
     7
100
AcDbVertex
100
AcDb2dVertex
 10
191.268084
 20
-82.464562
 30
0.0
  0
VERTEX
  5
383
100
AcDbEntity
  8
PEGA_345
 62
     7
100
AcDbVertex
100
AcDb2dVertex
 10
187.658313
 20
-82.464562
 30
0.0
  0
VERTEX
  5
384
100
AcDbEntity
  8
PEGA_345
 62
     7
100
AcDbVertex
100
AcDb2dVertex
 10
187.658313
 20
-90.445814
 30
0.0
  0
VERTEX
  5
385
100
AcDbEntity
  8
PEGA_345
 62
     7
100
AcDbVertex
100
AcDb2dVertex
 10
183.490781
 20
-90.445814
 30
0.0
  0
VERTEX
  5
386
100
AcDbEntity
  8
PEGA_345
 62
     7
100
AcDbVertex
100
AcDb2dVertex
 10
183.490781
 20
-96.663523
 30
0.0
  0
VERTEX
  5
387
100
AcDbEntity
  8
PEGA_345
 62
     7
100
AcDbVertex
100
AcDb2dVertex
 10
191.268084
 20
-96.663523
 30
0.0
  0
SEQEND
  5
388
100
AcDbEntity
  8
PEGA_345
 62
     7
  0
INSERT
  5
36A
100
AcDbEntity
  8
PEGA_345
 62
     7
100
AcDbBlockReference
  2
AI9-BLK38
 10
228.520418
 20
-108.555045
 30
0.0
  0
INSERT
  5
352
100
AcDbEntity
  8
PEGA_345
 62
     7
100
AcDbBlockReference
  2
AI9-BLK35
 10
217.530133
 20
-108.555045
 30
0.0
  0
MTEXT
  5
350
100
AcDbEntity
  8
PEGA_345
 62
     7
100
AcDbMText
 10
211.934695
 20
-99.782975
 30
0.0
 40
2.099868
 41
0.0
 71
     1
 72
     2
  1
\fArial|b0|i0;Pega 345Q
  7
STD
 11
1.000001
 21
0.0
 31
0.0
  0
INSERT
  5
341
100
AcDbEntity
  8
PEGA_345
 62
     7
100
AcDbBlockReference
  2
AI9-BLK34
 10
192.819411
 20
-57.414583
 30
0.0
  0
INSERT
  5
2E4
100
AcDbEntity
  8
PEGA_345
 62
     7
100
AcDbBlockReference
  2
AI9-BLK33
 10
231.625138
 20
-45.714092
 30
0.0
  0
INSERT
  5
287
100
AcDbEntity
  8
PEGA_345
 62
     7
100
AcDbBlockReference
  2
AI9-BLK32
 10
222.172485
 20
-156.480716
 30
0.0
  0
INSERT
  5
22A
100
AcDbEntity
  8
PEGA_345
 62
     7
100
AcDbBlockReference
  2
AI9-BLK31
 10
241.14187
 20
-118.942611
 30
0.0
  0
INSERT
  5
1F2
100
AcDbEntity
  8
PEGA_345
  6
AI9-LTYPE2
 62
     7
100
AcDbBlockReference
  2
AI9-BLK22
 10
214.870003
 20
-55.818126
 30
0.0
  0
LINE
  5
1F0
100
AcDbEntity
  8
PEGA_345
  6
AI9-LTYPE2
 62
     7
100
AcDbLine
 10
106.246573
 20
-137.116178
 30
0.0
 11
205.702345
 21
-137.116178
 31
0.0
  0
INSERT
  5
1DB
100
AcDbEntity
  8
PEGA_345
 62
     7
100
AcDbBlockReference
  2
AI9-BLK21
 10
219.889851
 20
-76.150907
 30
0.0
  0
INSERT
  5
1C8
100
AcDbEntity
  8
PEGA_345
 62
     7
100
AcDbBlockReference
  2
AI9-BLK20
 10
202.31151
 20
-47.067928
 30
0.0
  0
INSERT
  5
1B3
100
AcDbEntity
  8
PEGA_345
 62
     7
100
AcDbBlockReference
  2
AI9-BLK19
 10
214.86983
 20
-28.850952
 30
0.0
  0
INSERT
  5
1A0
100
AcDbEntity
  8
PEGA_345
 62
     7
100
AcDbBlockReference
  2
AI9-BLK18
 10
198.087995
 20
-70.62463
 30
0.0
  0
INSERT
  5
18B
100
AcDbEntity
  8
PEGA_345
 62
     7
100
AcDbBlockReference
  2
AI9-BLK17
 10
187.591823
 20
-68.71131
 30
0.0
  0
MTEXT
  5
189
100
AcDbEntity
  8
PEGA_345
 62
     7
100
AcDbMText
 10
135.731422
 20
-108.983102
 30
0.0
 40
2.099868
 41
0.0
 71
     1
 72
     2
  1
\fArial|b0|i0;Y-axis Zero
  7
STD
 11
1.000001
 21
0.0
 31
0.0
  0
INSERT
  5
177
100
AcDbEntity
  8
PEGA_345
 62
     7
100
AcDbBlockReference
  2
AI9-BLK16
 10
119.258009
 20
-124.511263
 30
0.0
  0
INSERT
  5
164
100
AcDbEntity
  8
PEGA_345
 62
     7
100
AcDbBlockReference
  2
AI9-BLK15
 10
181.280408
 20
-134.824587
 30
0.0
  0
INSERT
  5
151
100
AcDbEntity
  8
PEGA_345
 62
     7
100
AcDbBlockReference
  2
AI9-BLK14
 10
216.156573
 20
-164.552574
 30
0.0
  0
INSERT
  5
13D
100
AcDbEntity
  8
PEGA_345
 62
     7
100
AcDbBlockReference
  2
AI9-BLK13
 10
198.656522
 20
-161.586605
 30
0.0
  0
INSERT
  5
130
100
AcDbEntity
  8
PEGA_345
 62
     7
100
AcDbBlockReference
  2
AI9-BLK12
 10
202.459132
 20
-66.955172
 30
0.0
  0
INSERT
  5
123
100
AcDbEntity
  8
PEGA_345
 62
     7
100
AcDbBlockReference
  2
AI9-BLK11
 10
176.2125
 20
-171.095672
 30
0.0
  0
INSERT
  5
10F
100
AcDbEntity
  8
PEGA_345
  6
AI9-LTYPE1
 62
     7
100
AcDbBlockReference
  2
AI9-BLK10
 10
133.289022
 20
-104.687839
 30
0.0
  0
LINE
  5
10D
100
AcDbEntity
  8
PEGA_345
  6
AI9-LTYPE1
 62
     7
100
AcDbLine
 10
105.480556
 20
-137.306348
 30
0.0
 11
213.007326
 21
-137.306348
 31
0.0
  0
LINE
  5
10C
100
AcDbEntity
  8
PEGA_345
  6
AI9-LTYPE1
 62
     7
100
AcDbLine
 10
198.780459
 20
-29.293647
 30
0.0
 11
198.780459
 21
-210.657598
 31
0.0
  0
POLYLINE
  5
F7
100
AcDbEntity
  8
PEGA_345
 62
     7
100
AcDb2dPolyline
 66
     1
 10
0.0
 20
0.0
 30
0.0
 70
     1
  0
VERTEX
  5
F8
100
AcDbEntity
  8
PEGA_345
 62
     7
100
AcDbVertex
100
AcDb2dVertex
 10
249.01977
 20
-5.997222
 30
0.0
  0
VERTEX
  5
F9
100
AcDbEntity
  8
PEGA_345
 62
     7
100
AcDbVertex
100
AcDb2dVertex
 10
249.01977
 20
-31.414964
 30
0.0
  0
VERTEX
  5
FA
100
AcDbEntity
  8
PEGA_345
 62
     7
100
AcDbVertex
100
AcDb2dVertex
 10
272.247293
 20
-31.41462
 30
0.0
  0
VERTEX
  5
FB
100
AcDbEntity
  8
PEGA_345
 62
     7
100
AcDbVertex
100
AcDb2dVertex
 10
272.247293
 20
-86.506348
 30
0.0
  0
VERTEX
  5
FC
100
AcDbEntity
  8
PEGA_345
 62
     7
100
AcDbVertex
100
AcDb2dVertex
 10
287.679942
 20
-86.506348
 30
0.0
  0
VERTEX
  5
FD
100
AcDbEntity
  8
PEGA_345
 62
     7
100
AcDbVertex
100
AcDb2dVertex
 10
287.679942
 20
-188.106348
 30
0.0
  0
VERTEX
  5
FE
100
AcDbEntity
  8
PEGA_345
 62
     7
100
AcDbVertex
100
AcDb2dVertex
 10
240.45733
 20
-188.106348
 30
0.0
  0
VERTEX
  5
FF
100
AcDbEntity
  8
PEGA_345
 62
     7
100
AcDbVertex
100
AcDb2dVertex
 10
240.45733
 20
-203.378456
 30
0.0
  0
VERTEX
  5
100
100
AcDbEntity
  8
PEGA_345
 62
     7
100
AcDbVertex
100
AcDb2dVertex
 10
154.997085
 20
-203.378456
 30
0.0
  0
VERTEX
  5
101
100
AcDbEntity
  8
PEGA_345
 62
     7
100
AcDbVertex
100
AcDb2dVertex
 10
154.997085
 20
-188.106348
 30
0.0
  0
VERTEX
  5
102
100
AcDbEntity
  8
PEGA_345
 62
     7
100
AcDbVertex
100
AcDb2dVertex
 10
109.880804
 20
-188.106348
 30
0.0
  0
VERTEX
  5
103
100
AcDbEntity
  8
PEGA_345
 62
     7
100
AcDbVertex
100
AcDb2dVertex
 10
109.880804
 20
-86.506348
 30
0.0
  0
VERTEX
  5
104
100
AcDbEntity
  8
PEGA_345
 62
     7
100
AcDbVertex
100
AcDb2dVertex
 10
138.380356
 20
-86.506348
 30
0.0
  0
VERTEX
  5
105
100
AcDbEntity
  8
PEGA_345
 62
     7
100
AcDbVertex
100
AcDb2dVertex
 10
138.380356
 20
-65.045814
 30
0.0
  0
VERTEX
  5
106
100
AcDbEntity
  8
PEGA_345
 62
     7
100
AcDbVertex
100
AcDb2dVertex
 10
149.255489
 20
-65.045814
 30
0.0
  0
VERTEX
  5
107
100
AcDbEntity
  8
PEGA_345
 62
     7
100
AcDbVertex
100
AcDb2dVertex
 10
149.255489
 20
-50.288059
 30
0.0
  0
VERTEX
  5
108
100
AcDbEntity
  8
PEGA_345
 62
     7
100
AcDbVertex
100
AcDb2dVertex
 10
180.719891
 20
-50.288059
 30
0.0
  0
VERTEX
  5
109
100
AcDbEntity
  8
PEGA_345
 62
     7
100
AcDbVertex
100
AcDb2dVertex
 10
180.719891
 20
-5.997222
 30
0.0
  0
SEQEND
  5
10A
100
AcDbEntity
  8
PEGA_345
 62
     7
  0
SPLINE
  5
F6
100
AcDbEntity
  8
PEGA_345
 62
     7
100
AcDbSpline
210
0.0
220
0.0
230
1.0
 70
     9
 71
     3
 72
    59
 73
    55
 74
     0
 42
0.0000001
 43
0.0000001
 40
0.0
 40
0.0
 40
0.0
 40
0.0
 40
1.0
 40
1.0
 40
1.0
 40
2.0
 40
2.0
 40
2.0
 40
3.0
 40
3.0
 40
3.0
 40
4.0
 40
4.0
 40
4.0
 40
5.0
 40
5.0
 40
5.0
 40
6.0
 40
6.0
 40
6.0
 40
7.0
 40
7.0
 40
7.0
 40
8.0
 40
8.0
 40
8.0
 40
9.0
 40
9.0
 40
9.0
 40
10.0
 40
10.0
 40
10.0
 40
11.0
 40
11.0
 40
11.0
 40
12.0
 40
12.0
 40
12.0
 40
13.0
 40
13.0
 40
13.0
 40
14.0
 40
14.0
 40
14.0
 40
15.0
 40
15.0
 40
15.0
 40
16.0
 40
16.0
 40
16.0
 40
17.0
 40
17.0
 40
17.0
 40
18.0
 40
18.0
 40
18.0
 40
18.0
 10
183.8948906792534
 20
-9.17222222222222
 30
0.0
 10
183.8948906792534
 20
-14.64441189236111
 30
0.0
 10
183.8948906792534
 20
-53.46305881076388
 30
0.0
 10
183.8948906792534
 20
-53.46305881076388
 30
0.0
 10
183.8948906792534
 20
-53.46305881076388
 30
0.0
 10
157.5636813693576
 20
-53.46305881076388
 30
0.0
 10
152.430489095052
 20
-53.46305881076388
 30
0.0
 10
152.430489095052
 20
-57.37462022569443
 30
0.0
 10
152.430489095052
 20
-68.22081434461805
 30
0.0
 10
152.430489095052
 20
-68.22081434461805
 30
0.0
 10
152.430489095052
 20
-68.22081434461805
 30
0.0
 10
144.738796657986
 20
-68.22081434461805
 30
0.0
 10
141.5553561740451
 20
-68.22081434461805
 30
0.0
 10
141.5553561740451
 20
-72.83086886935763
 30
0.0
 10
141.5553561740451
 20
-89.68134765625
 30
0.0
 10
141.5553561740451
 20
-89.68134765625
 30
0.0
 10
141.5553561740451
 20
-89.68134765625
 30
0.0
 10
118.069795735677
 20
-89.68134765625
 30
0.0
 10
113.0558037651909
 20
-89.68134765625
 30
0.0
 10
113.0558037651909
 20
-95.4484375
 30
0.0
 10
113.0558037651909
 20
-179.1642578124999
 30
0.0
 10
113.0558037651909
 20
-184.9313476562499
 30
0.0
 10
118.5434963650173
 20
-184.9313476562499
 30
0.0
 10
158.1720852322048
 20
-184.9313476562499
 30
0.0
 10
158.1720852322048
 20
-184.9313476562499
 30
0.0
 10
158.1720852322048
 20
-184.9313476562499
 30
0.0
 10
158.1720852322048
 20
-196.219203016493
 30
0.0
 10
158.1720852322048
 20
-200.2034559461805
 30
0.0
 10
163.8318603515624
 20
-200.2034559461805
 30
0.0
 10
231.6223822699652
 20
-200.2034559461805
 30
0.0
 10
237.2823296440972
 20
-200.2034559461805
 30
0.0
 10
237.2823296440972
 20
-196.219203016493
 30
0.0
 10
237.2823296440972
 20
-184.9313476562499
 30
0.0
 10
237.2823296440972
 20
-184.9313476562499
 30
0.0
 10
237.2823296440972
 20
-184.9313476562499
 30
0.0
 10
278.980042860243
 20
-184.9313476562499
 30
0.0
 10
284.5049424913194
 20
-184.9313476562499
 30
0.0
 10
284.5049424913194
 20
-179.1642578124999
 30
0.0
 10
284.5049424913194
 20
-95.4484375
 30
0.0
 10
284.5049424913194
 20
-89.68134765625
 30
0.0
 10
280.4989854600694
 20
-89.68134765625
 30
0.0
 10
269.072292751736
 20
-89.68134765625
 30
0.0
 10
269.072292751736
 20
-89.68134765625
 30
0.0
 10
269.072292751736
 20
-89.68134765625
 30
0.0
 10
269.072292751736
 20
-40.22889675564235
 30
0.0
 10
269.072292751736
 20
-34.58961995442708
 30
0.0
 10
264.3394205729166
 20
-34.58979220920138
 30
0.0
 10
245.8447699652777
 20
-34.58996446397569
 30
0.0
 10
245.8447699652777
 20
-34.58996446397569
 30
0.0
 10
245.8447699652777
 20
-34.58996446397569
 30
0.0
 10
245.8447699652777
 20
-14.03497450086805
 30
0.0
 10
245.8447699652777
 20
-9.17222222222222
 30
0.0
 10
240.352943250868
 20
-9.17222222222222
 30
0.0
 10
189.3867173936632
 20
-9.17222222222222
 30
0.0
 10
183.8948906792534
 20
-9.17222222222222
 30
0.0
  0
MTEXT
  5
F5
100
AcDbEntity
  8
PEGA_345
 62
     7
100
AcDbMText
 10
20.6375
 20
-11.48731
 30
0.0
 40
2.624835
 41
0.0
 71
     1
 72
     2
  1
\fArial|b0|i0;Pega 345 Queen
  7
STD
 11
1.000001
 21
0.0
 31
0.0
  0
MTEXT
  5
F4
100
AcDbEntity
  8
PEGA_345
 62
     7
100
AcDbMText
 10
22.225
 20
-15.45606
 30
0.0
 40
2.624835
 41
0.0
 71
     1
 72
     2
  1
\fArial|b0|i0;230 / 460 / 3 / 60 \M+100B110%  18 kVA
  7
STD
 11
1.000001
 21
0.0
 31
0.0
  0
MTEXT
  5
F3
100
AcDbEntity
  8
PEGA_345
 62
     7
100
AcDbMText
 10
22.225
 20
-18.63106
 30
0.0
 40
2.624835
 41
0.0
 71
     1
 72
     2
  1
\fArial|b0|i0;46 amps @ 230 / 3 / 60 VAC
  7
STD
 11
1.000001
 21
0.0
 31
0.0
  0
MTEXT
  5
F2
100
AcDbEntity
  8
PEGA_345
 62
     7
100
AcDbMText
 10
22.225
 20
-26.039393
 30
0.0
 40
2.624835
 41
0.0
 71
     1
 72
     2
  1
\fArial|b0|i0;
  7
STD
 11
1.000001
 21
0.0
 31
0.0
  0
MTEXT
  5
F1
100
AcDbEntity
  8
PEGA_345
 62
     7
100
AcDbMText
 10
22.225
 20
-21.80606
 30
0.0
 40
2.624835
 41
0.0
 71
     1
 72
     2
  1
\fArial|b0|i0;23 amps @ 460 / 3 / 60 VAC
  7
STD
 11
1.000001
 21
0.0
 31
0.0
  0
POLYLINE
  5
EB
100
AcDbEntity
  8
PEGA_345
 62
     7
100
AcDb2dPolyline
 66
     1
 10
0.0
 20
0.0
 30
0.0
 70
     1
  0
VERTEX
  5
EC
100
AcDbEntity
  8
PEGA_345
 62
     7
100
AcDbVertex
100
AcDb2dVertex
 10
87.290968
 20
-26.018395
 30
0.0
  0
VERTEX
  5
ED
100
AcDbEntity
  8
PEGA_345
 62
     7
100
AcDbVertex
100
AcDb2dVertex
 10
12.678124
 20
-26.018395
 30
0.0
  0
VERTEX
  5
EE
100
AcDbEntity
  8
PEGA_345
 62
     7
100
AcDbVertex
100
AcDb2dVertex
 10
12.678124
 20
-9.349645
 30
0.0
  0
VERTEX
  5
EF
100
AcDbEntity
  8
PEGA_345
 62
     7
100
AcDbVertex
100
AcDb2dVertex
 10
87.290968
 20
-9.349645
 30
0.0
  0
SEQEND
  5
F0
100
AcDbEntity
  8
PEGA_345
 62
     7
  0
INSERT
  5
DF
100
AcDbEntity
  8
PEGA_345
 62
     7
100
AcDbBlockReference
  2
AI9-BLK9
 10
16.66875
 20
-12.893098
 30
0.0
  0
MTEXT
  5
DD
100
AcDbEntity
  8
PEGA_345
 62
     7
100
AcDbMText
 10
20.6375
 20
-34.329671
 30
0.0
 40
2.624835
 41
0.0
 71
     1
 72
     2
  1
\fArial|b0|i0;Pega 345
  7
STD
 11
1.000001
 21
0.0
 31
0.0
  0
MTEXT
  5
DC
100
AcDbEntity
  8
PEGA_345
 62
     7
100
AcDbMText
 10
52.3875
 20
-34.329671
 30
0.0
 40
2.624835
 41
0.0
 71
     1
 72
     2
  1
\fArial|b0|i0;80 psi @ 8.8 ft3/min.
  7
STD
 11
1.000001
 21
0.0
 31
0.0
  0
INSERT
  5
D0
100
AcDbEntity
  8
PEGA_345
 62
     7
100
AcDbBlockReference
  2
AI9-BLK8
 10
16.66875
 20
-35.792131
 30
0.0
  0
POLYLINE
  5
C9
100
AcDbEntity
  8
PEGA_345
 62
     7
100
AcDb2dPolyline
 66
     1
 10
0.0
 20
0.0
 30
0.0
 70
     1
  0
VERTEX
  5
CA
100
AcDbEntity
  8
PEGA_345
 62
     7
100
AcDbVertex
100
AcDb2dVertex
 10
87.3125
 20
-39.335756
 30
0.0
  0
VERTEX
  5
CB
100
AcDbEntity
  8
PEGA_345
 62
     7
100
AcDbVertex
100
AcDb2dVertex
 10
12.7
 20
-39.335756
 30
0.0
  0
VERTEX
  5
CC
100
AcDbEntity
  8
PEGA_345
 62
     7
100
AcDbVertex
100
AcDb2dVertex
 10
12.7
 20
-32.192006
 30
0.0
  0
VERTEX
  5
CD
100
AcDbEntity
  8
PEGA_345
 62
     7
100
AcDbVertex
100
AcDb2dVertex
 10
87.3125
 20
-32.192006
 30
0.0
  0
SEQEND
  5
CE
100
AcDbEntity
  8
PEGA_345
 62
     7
  0
MTEXT
  5
C8
100
AcDbEntity
  8
PEGA_345
 62
     7
100
AcDbMText
 10
13.49375
 20
-5.13731
 30
0.0
 40
2.624835
 41
0.0
 71
     1
 72
     2
  1
\fArial|b0|i0;Electrical Requirements
  7
STD
 11
1.000001
 21
0.0
 31
0.0
  0
POLYLINE
  5
C2
100
AcDbEntity
  8
PEGA_345
 62
     7
100
AcDb2dPolyline
 66
     1
 10
0.0
 20
0.0
 30
0.0
 70
     1
  0
VERTEX
  5
C3
100
AcDbEntity
  8
PEGA_345
 62
     7
100
AcDbVertex
100
AcDb2dVertex
 10
87.290968
 20
-9.349645
 30
0.0
  0
VERTEX
  5
C4
100
AcDbEntity
  8
PEGA_345
 62
     7
100
AcDbVertex
100
AcDb2dVertex
 10
12.678124
 20
-9.349645
 30
0.0
  0
VERTEX
  5
C5
100
AcDbEntity
  8
PEGA_345
 62
     7
100
AcDbVertex
100
AcDb2dVertex
 10
12.678124
 20
-4.587145
 30
0.0
  0
VERTEX
  5
C6
100
AcDbEntity
  8
PEGA_345
 62
     7
100
AcDbVertex
100
AcDb2dVertex
 10
87.290968
 20
-4.587145
 30
0.0
  0
SEQEND
  5
C7
100
AcDbEntity
  8
PEGA_345
 62
     7
  0
MTEXT
  5
C1
100
AcDbEntity
  8
PEGA_345
 62
     7
100
AcDbMText
 10
13.49375
 20
-27.979671
 30
0.0
 40
2.624835
 41
0.0
 71
     1
 72
     2
  1
\fArial|b0|i0;Compressed Air Requirements
  7
STD
 11
1.000001
 21
0.0
 31
0.0
  0
POLYLINE
  5
BB
100
AcDbEntity
  8
PEGA_345
 62
     7
100
AcDb2dPolyline
 66
     1
 10
0.0
 20
0.0
 30
0.0
 70
     1
  0
VERTEX
  5
BC
100
AcDbEntity
  8
PEGA_345
 62
     7
100
AcDbVertex
100
AcDb2dVertex
 10
87.290968
 20
-32.192006
 30
0.0
  0
VERTEX
  5
BD
100
AcDbEntity
  8
PEGA_345
 62
     7
100
AcDbVertex
100
AcDb2dVertex
 10
12.678124
 20
-32.192006
 30
0.0
  0
VERTEX
  5
BE
100
AcDbEntity
  8
PEGA_345
 62
     7
100
AcDbVertex
100
AcDb2dVertex
 10
12.678124
 20
-27.429506
 30
0.0
  0
VERTEX
  5
BF
100
AcDbEntity
  8
PEGA_345
 62
     7
100
AcDbVertex
100
AcDb2dVertex
 10
87.290968
 20
-27.429506
 30
0.0
  0
SEQEND
  5
C0
100
AcDbEntity
  8
PEGA_345
 62
     7
  0
INSERT
  5
5F
100
AcDbEntity
  8
PEGA_345
 62
     7
100
AcDbBlockReference
  2
AI9-BLK7
 10
38.06219
 20
-51.713725
 30
0.0
  0
MTEXT
  5
5D
100
AcDbEntity
  8
PEGA_345
 62
     7
100
AcDbMText
 10
16.864604
 20
-42.090782
 30
0.0
 40
2.624835
 41
0.0
 71
     1
 72
     2
  1
\fArial|b0|i0;Operator Control Station
  7
STD
 11
1.000001
 21
0.0
 31
0.0
  0
POLYLINE
  5
57
100
AcDbEntity
  8
PEGA_345
 62
     7
100
AcDb2dPolyline
 66
     1
 10
0.0
 20
0.0
 30
0.0
 70
     1
  0
VERTEX
  5
58
100
AcDbEntity
  8
PEGA_345
 62
     7
100
AcDbVertex
100
AcDb2dVertex
 10
58.561283
 20
-58.738534
 30
0.0
  0
VERTEX
  5
59
100
AcDbEntity
  8
PEGA_345
 62
     7
100
AcDbVertex
100
AcDb2dVertex
 10
12.7
 20
-58.738534
 30
0.0
  0
VERTEX
  5
5A
100
AcDbEntity
  8
PEGA_345
 62
     7
100
AcDbVertex
100
AcDb2dVertex
 10
12.7
 20
-40.746867
 30
0.0
  0
VERTEX
  5
5B
100
AcDbEntity
  8
PEGA_345
 62
     7
100
AcDbVertex
100
AcDb2dVertex
 10
58.561283
 20
-40.746867
 30
0.0
  0
SEQEND
  5
5C
100
AcDbEntity
  8
PEGA_345
 62
     7
  0
INSERT
  5
24
100
AcDbEntity
  8
PEGA_345
 62
     7
100
AcDbBlockReference
  2
AI9-BLK1
 10
24.130052
 20
-65.716058
 30
0.0
  0
MTEXT
  5
22
100
AcDbEntity
  8
PEGA_345
 62
     7
100
AcDbMText
 10
25.942947
 20
-41.427946
 30
0.0
 40
2.624835
 41
0.0
 71
     1
 72
     2
  1
\fArial|b0|i0;
  7
STD
 11
1.000001
 21
0.0
 31
0.0
  0
ENDSEC
  0
SECTION
  2
OBJECTS
  0
DICTIONARY
  5
19
100
AcDbDictionary
  3
ACAD_GROUP
350
1A
  3
ACAD_MLINESTYLE
350
1B
  0
DICTIONARY
  5
1A
102
{ACAD_REACTORS
330
19
102
}
100
AcDbDictionary
  0
DICTIONARY
  5
1B
102
{ACAD_REACTORS
330
19
102
}
100
AcDbDictionary
  3
STANDARD
350
1C
  0
MLINESTYLE
  5
1C
102
{ACAD_REACTORS
330
1B
102
}
100
AcDbMlineStyle
  2
STANDARD
 70
     0
  3

 62
     0
 51
90.0
 52
90.0
 71
     2
 49
0.5
 62
   256
  6
BYLAYER
 49
-0.5
 62
   256
  6
BYLAYER
  0
ENDSEC
  0
EOF
